  0
SECTION
  2
HEADER
  9
$ACADVER
  1
AC1021
  9
$ACADMAINTVER
 70
    25
  9
$DWGCODEPAGE
  3
ANSI_1252
  9
$LASTSAVEDBY
  1
andrearobredo
  9
$INSBASE
 10
0.0
 20
0.0
 30
0.0
  9
$EXTMIN
 10
-587.3961538540439
 20
-498.7044460644591
 30
-0.0000000000006111
  9
$EXTMAX
 10
588.5108337358984
 20
499.8412833480077
 30
0.0000000000009663
  9
$LIMMIN
 10
0.0
 20
0.0
  9
$LIMMAX
 10
12.0
 20
9.0
  9
$ORTHOMODE
 70
     0
  9
$REGENMODE
 70
     1
  9
$FILLMODE
 70
     1
  9
$QTEXTMODE
 70
     0
  9
$MIRRTEXT
 70
     1
  9
$LTSCALE
 40
1.0
  9
$ATTMODE
 70
     1
  9
$TEXTSIZE
 40
0.2
  9
$TRACEWID
 40
0.05
  9
$TEXTSTYLE
  7
Standard
  9
$CLAYER
  8
0
  9
$CELTYPE
  6
ByLayer
  9
$CECOLOR
 62
   256
  9
$CELTSCALE
 40
1.0
  9
$DISPSILH
 70
     0
  9
$DIMSCALE
 40
1.0
  9
$DIMASZ
 40
0.18
  9
$DIMEXO
 40
0.0625
  9
$DIMDLI
 40
0.38
  9
$DIMRND
 40
0.0
  9
$DIMDLE
 40
0.0
  9
$DIMEXE
 40
0.18
  9
$DIMTP
 40
0.0
  9
$DIMTM
 40
0.0
  9
$DIMTXT
 40
0.18
  9
$DIMCEN
 40
0.09
  9
$DIMTSZ
 40
0.0
  9
$DIMTOL
 70
     0
  9
$DIMLIM
 70
     0
  9
$DIMTIH
 70
     1
  9
$DIMTOH
 70
     1
  9
$DIMSE1
 70
     0
  9
$DIMSE2
 70
     0
  9
$DIMTAD
 70
     0
  9
$DIMZIN
 70
     0
  9
$DIMBLK
  1

  9
$DIMASO
 70
     1
  9
$DIMSHO
 70
     1
  9
$DIMPOST
  1

  9
$DIMAPOST
  1

  9
$DIMALT
 70
     0
  9
$DIMALTD
 70
     2
  9
$DIMALTF
 40
25.4
  9
$DIMLFAC
 40
1.0
  9
$DIMTOFL
 70
     0
  9
$DIMTVP
 40
0.0
  9
$DIMTIX
 70
     0
  9
$DIMSOXD
 70
     0
  9
$DIMSAH
 70
     0
  9
$DIMBLK1
  1

  9
$DIMBLK2
  1

  9
$DIMSTYLE
  2
STANDARD_ACAD
  9
$DIMCLRD
 70
     0
  9
$DIMCLRE
 70
     0
  9
$DIMCLRT
 70
     0
  9
$DIMTFAC
 40
1.0
  9
$DIMGAP
 40
0.09
  9
$DIMJUST
 70
     0
  9
$DIMSD1
 70
     0
  9
$DIMSD2
 70
     0
  9
$DIMTOLJ
 70
     1
  9
$DIMTZIN
 70
     0
  9
$DIMALTZ
 70
     0
  9
$DIMALTTZ
 70
     0
  9
$DIMUPT
 70
     0
  9
$DIMDEC
 70
     4
  9
$DIMTDEC
 70
     4
  9
$DIMALTU
 70
     2
  9
$DIMALTTD
 70
     2
  9
$DIMTXSTY
  7
Standard
  9
$DIMAUNIT
 70
     0
  9
$DIMADEC
 70
     0
  9
$DIMALTRND
 40
0.0
  9
$DIMAZIN
 70
     0
  9
$DIMDSEP
 70
    46
  9
$DIMATFIT
 70
     3
  9
$DIMFRAC
 70
     0
  9
$DIMLDRBLK
  1

  9
$DIMLUNIT
 70
     2
  9
$DIMLWD
 70
    -2
  9
$DIMLWE
 70
    -2
  9
$DIMTMOVE
 70
     2
  9
$DIMFXL
 40
1.0
  9
$DIMFXLON
 70
     0
  9
$DIMJOGANG
 40
0.7853981633974483
  9
$DIMTFILL
 70
     0
  9
$DIMTFILLCLR
 70
     0
  9
$DIMARCSYM
 70
     0
  9
$DIMLTYPE
  6

  9
$DIMLTEX1
  6

  9
$DIMLTEX2
  6

  9
$LUNITS
 70
     2
  9
$LUPREC
 70
     3
  9
$SKETCHINC
 40
0.1
  9
$FILLETRAD
 40
0.0
  9
$AUNITS
 70
     0
  9
$AUPREC
 70
     0
  9
$MENU
  1
.
  9
$ELEVATION
 40
0.0
  9
$PELEVATION
 40
0.0
  9
$THICKNESS
 40
0.0
  9
$LIMCHECK
 70
     0
  9
$CHAMFERA
 40
0.0
  9
$CHAMFERB
 40
0.0
  9
$CHAMFERC
 40
0.0
  9
$CHAMFERD
 40
0.0
  9
$SKPOLY
 70
     0
  9
$TDCREATE
 40
2460375.455805961
  9
$TDUCREATE
 40
2460375.705805961
  9
$TDUPDATE
 40
2460375.455825533
  9
$TDUUPDATE
 40
2460375.705825533
  9
$TDINDWG
 40
0.0000000116
  9
$TDUSRTIMER
 40
0.0000000116
  9
$USRTIMER
 70
     1
  9
$ANGBASE
 50
0.0
  9
$ANGDIR
 70
     0
  9
$PDMODE
 70
     0
  9
$PDSIZE
 40
0.0
  9
$PLINEWID
 40
0.0
  9
$SPLFRAME
 70
     0
  9
$SPLINETYPE
 70
     6
  9
$SPLINESEGS
 70
     8
  9
$HANDSEED
  5
2D6
  9
$SURFTAB1
 70
     6
  9
$SURFTAB2
 70
     6
  9
$SURFTYPE
 70
     6
  9
$SURFU
 70
     6
  9
$SURFV
 70
     6
  9
$UCSBASE
  2

  9
$UCSNAME
  2

  9
$UCSORG
 10
0.0
 20
0.0
 30
0.0
  9
$UCSXDIR
 10
1.0
 20
0.0
 30
0.0
  9
$UCSYDIR
 10
0.0
 20
1.0
 30
0.0
  9
$UCSORTHOREF
  2

  9
$UCSORTHOVIEW
 70
     0
  9
$UCSORGTOP
 10
0.0
 20
0.0
 30
0.0
  9
$UCSORGBOTTOM
 10
0.0
 20
0.0
 30
0.0
  9
$UCSORGLEFT
 10
0.0
 20
0.0
 30
0.0
  9
$UCSORGRIGHT
 10
0.0
 20
0.0
 30
0.0
  9
$UCSORGFRONT
 10
0.0
 20
0.0
 30
0.0
  9
$UCSORGBACK
 10
0.0
 20
0.0
 30
0.0
  9
$PUCSBASE
  2

  9
$PUCSNAME
  2

  9
$PUCSORG
 10
0.0
 20
0.0
 30
0.0
  9
$PUCSXDIR
 10
1.0
 20
0.0
 30
0.0
  9
$PUCSYDIR
 10
0.0
 20
1.0
 30
0.0
  9
$PUCSORTHOREF
  2

  9
$PUCSORTHOVIEW
 70
     0
  9
$PUCSORGTOP
 10
0.0
 20
0.0
 30
0.0
  9
$PUCSORGBOTTOM
 10
0.0
 20
0.0
 30
0.0
  9
$PUCSORGLEFT
 10
0.0
 20
0.0
 30
0.0
  9
$PUCSORGRIGHT
 10
0.0
 20
0.0
 30
0.0
  9
$PUCSORGFRONT
 10
0.0
 20
0.0
 30
0.0
  9
$PUCSORGBACK
 10
0.0
 20
0.0
 30
0.0
  9
$USERI1
 70
     0
  9
$USERI2
 70
     0
  9
$USERI3
 70
     0
  9
$USERI4
 70
     0
  9
$USERI5
 70
     0
  9
$USERR1
 40
0.0
  9
$USERR2
 40
0.0
  9
$USERR3
 40
0.0
  9
$USERR4
 40
0.0
  9
$USERR5
 40
0.0
  9
$WORLDVIEW
 70
     1
  9
$SHADEDGE
 70
     3
  9
$SHADEDIF
 70
    70
  9
$TILEMODE
 70
     1
  9
$MAXACTVP
 70
    64
  9
$PINSBASE
 10
0.0
 20
0.0
 30
0.0
  9
$PLIMCHECK
 70
     0
  9
$PEXTMIN
 10
1.000000000000000E+20
 20
1.000000000000000E+20
 30
1.000000000000000E+20
  9
$PEXTMAX
 10
-1.000000000000000E+20
 20
-1.000000000000000E+20
 30
-1.000000000000000E+20
  9
$PLIMMIN
 10
0.0
 20
0.0
  9
$PLIMMAX
 10
12.0
 20
9.0
  9
$UNITMODE
 70
     0
  9
$VISRETAIN
 70
     1
  9
$PLINEGEN
 70
     0
  9
$PSLTSCALE
 70
     1
  9
$TREEDEPTH
 70
  3020
  9
$CMLSTYLE
  2
Standard
  9
$CMLJUST
 70
     0
  9
$CMLSCALE
 40
1.0
  9
$PROXYGRAPHICS
 70
     1
  9
$MEASUREMENT
 70
     1
  9
$CELWEIGHT
370
    -1
  9
$ENDCAPS
280
     0
  9
$JOINSTYLE
280
     0
  9
$LWDISPLAY
290
     0
  9
$INSUNITS
 70
     4
  9
$HYPERLINKBASE
  1

  9
$STYLESHEET
  1

  9
$XEDIT
290
     1
  9
$CEPSNTYPE
380
     0
  9
$PSTYLEMODE
290
     1
  9
$FINGERPRINTGUID
  2
{59413cdc-fc3a-bd47-b0d5-a9da60f3f951}
  9
$VERSIONGUID
  2
{FAEB1C32-E019-11D5-929B-00C0DF256EC4}
  9
$EXTNAMES
290
     1
  9
$PSVPSCALE
 40
0.0
  9
$OLESTARTUP
290
     0
  9
$SORTENTS
280
   127
  9
$INDEXCTL
280
     0
  9
$HIDETEXT
280
     1
  9
$XCLIPFRAME
290
     0
  9
$HALOGAP
280
     0
  9
$OBSCOLOR
 70
   257
  9
$OBSLTYPE
280
     0
  9
$INTERSECTIONDISPLAY
280
     0
  9
$INTERSECTIONCOLOR
 70
   257
  9
$DIMASSOC
280
     2
  9
$PROJECTNAME
  1

  9
$CAMERADISPLAY
290
     0
  9
$LENSLENGTH
 40
50.0
  9
$CAMERAHEIGHT
 40
0.0
  9
$STEPSPERSEC
 40
2.0
  9
$STEPSIZE
 40
6.0
  9
$3DDWFPREC
 40
2.0
  9
$PSOLWIDTH
 40
0.25
  9
$PSOLHEIGHT
 40
4.0
  9
$LOFTANG1
 40
1.570796326794897
  9
$LOFTANG2
 40
1.570796326794897
  9
$LOFTMAG1
 40
0.0
  9
$LOFTMAG2
 40
0.0
  9
$LOFTPARAM
 70
     7
  9
$LOFTNORMALS
280
     1
  9
$LATITUDE
 40
37.795
  9
$LONGITUDE
 40
-122.394
  9
$NORTHDIRECTION
 40
0.0
  9
$TIMEZONE
 70
 -8000
  9
$LIGHTGLYPHDISPLAY
280
     1
  9
$TILEMODELIGHTSYNCH
280
     1
  9
$CMATERIAL
347
44
  9
$SOLIDHIST
280
     0
  9
$SHOWHIST
280
     1
  9
$DWFFRAME
280
     2
  9
$DGNFRAME
280
     2
  9
$REALWORLDSCALE
290
     1
  9
$INTERFERECOLOR
 62
   256
  9
$CSHADOW
280
     0
  9
$SHADOWPLANELOCATION
 40
0.0
  0
ENDSEC
  0
SECTION
  2
CLASSES
  0
CLASS
  1
ACDBDICTIONARYWDFLT
  2
AcDbDictionaryWithDefault
  3
ObjectDBX Classes
 90
        0
 91
        3
280
     0
281
     0
  0
CLASS
  1
VISUALSTYLE
  2
AcDbVisualStyle
  3
ObjectDBX Classes
 90
     4095
 91
        3
280
     0
281
     0
  0
CLASS
  1
MATERIAL
  2
AcDbMaterial
  3
ObjectDBX Classes
 90
     1153
 91
        3
280
     0
281
     0
  0
CLASS
  1
SCALE
  2
AcDbScale
  3
ObjectDBX Classes
 90
     1153
 91
        3
280
     0
281
     0
  0
CLASS
  1
TABLESTYLE
  2
AcDbTableStyle
  3
ObjectDBX Classes
 90
     4095
 91
        3
280
     0
281
     0
  0
CLASS
  1
MLEADERSTYLE
  2
AcDbMLeaderStyle
  3
ACDB_MLEADERSTYLE_CLASS
 90
     4095
 91
        3
280
     0
281
     0
  0
CLASS
  1
SUN
  2
AcDbSun
  3
SCENEOE
 90
     1153
 91
        3
280
     0
281
     0
  0
CLASS
  1
DICTIONARYVAR
  2
AcDbDictionaryVar
  3
ObjectDBX Classes
 90
        0
 91
        3
280
     0
281
     0
  0
CLASS
  1
CELLSTYLEMAP
  2
AcDbCellStyleMap
  3
ObjectDBX Classes
 90
     1152
 91
        3
280
     0
281
     0
  0
ENDSEC
  0
SECTION
  2
TABLES
  0
TABLE
  2
VPORT
  5
8
330
0
100
AcDbSymbolTable
 70
     1
  0
VPORT
  5
29
330
8
100
AcDbSymbolTableRecord
100
AcDbViewportTableRecord
  2
*Active
 70
     0
 10
0.0
 20
0.0
 11
1.0
 21
1.0
 12
10.42990654205607
 22
4.5
 13
0.0
 23
0.0
 14
0.5
 24
0.5
 15
0.5
 25
0.5
 16
0.0
 26
0.0
 36
1.0
 17
0.0
 27
0.0
 37
0.0
 40
9.0
 41
1.972972972850329
 42
50.0
 43
0.0
 44
0.0
 50
0.0
 51
0.0
 71
     0
 72
   100
 73
     1
 74
     3
 75
     0
 76
     0
 77
     0
 78
     0
281
     0
 65
     1
110
0.0
120
0.0
130
0.0
111
1.0
121
0.0
131
0.0
112
0.0
122
1.0
132
0.0
 79
     0
146
0.0
348
2F
 60
     3
 61
     5
292
     1
282
     1
141
0.0
142
0.0
 63
   250
361
5D
  0
ENDTAB
  0
TABLE
  2
LTYPE
  5
5
330
0
100
AcDbSymbolTable
 70
     1
  0
LTYPE
  5
14
330
5
100
AcDbSymbolTableRecord
100
AcDbLinetypeTableRecord
  2
ByBlock
 70
     0
  3

 72
    65
 73
     0
 40
0.0
  0
LTYPE
  5
15
330
5
100
AcDbSymbolTableRecord
100
AcDbLinetypeTableRecord
  2
ByLayer
 70
     0
  3

 72
    65
 73
     0
 40
0.0
  0
LTYPE
  5
16
330
5
100
AcDbSymbolTableRecord
100
AcDbLinetypeTableRecord
  2
Continuous
 70
     0
  3
Solid line
 72
    65
 73
     0
 40
0.0
  0
ENDTAB
  0
TABLE
  2
LAYER
  5
2
330
0
100
AcDbSymbolTable
 70
     2
  0
LAYER
  5
10
330
2
100
AcDbSymbolTableRecord
100
AcDbLayerTableRecord
  2
0
 70
     0
 62
     7
  6
Continuous
370
    -3
390
F
347
46
  0
LAYER
  5
5F
330
2
100
AcDbSymbolTableRecord
100
AcDbLayerTableRecord
  2
Depiece con dogbone
 70
     0
 62
    18
420
        0
  6
Continuous
370
    -3
390
F
347
46
  0
ENDTAB
  0
TABLE
  2
STYLE
  5
3
330
0
100
AcDbSymbolTable
 70
     1
  0
STYLE
  5
11
330
3
100
AcDbSymbolTableRecord
100
AcDbTextStyleTableRecord
  2
Standard
 70
     0
 40
0.0
 41
1.0
 50
0.0
 71
     0
 42
0.2
  3
txt
  4

  0
ENDTAB
  0
TABLE
  2
VIEW
  5
6
330
0
100
AcDbSymbolTable
 70
     0
  0
ENDTAB
  0
TABLE
  2
UCS
  5
7
330
0
100
AcDbSymbolTable
 70
     0
  0
ENDTAB
  0
TABLE
  2
APPID
  5
9
330
0
100
AcDbSymbolTable
 70
     3
  0
APPID
  5
12
330
9
100
AcDbSymbolTableRecord
100
AcDbRegAppTableRecord
  2
ACAD
 70
     0
  0
APPID
  5
5E
330
9
100
AcDbSymbolTableRecord
100
AcDbRegAppTableRecord
  2
Rhino
 70
     0
  0
APPID
  5
2CE
330
9
100
AcDbSymbolTableRecord
100
AcDbRegAppTableRecord
  2
ACAD_MLEADERVER
 70
     0
  0
ENDTAB
  0
TABLE
  2
DIMSTYLE
  5
A
330
0
100
AcDbSymbolTable
 70
     1
100
AcDbDimStyleTable
  0
DIMSTYLE
105
27
330
A
100
AcDbSymbolTableRecord
100
AcDbDimStyleTableRecord
  2
STANDARD_ACAD
 70
     0
178
     0
340
11
  0
ENDTAB
  0
TABLE
  2
BLOCK_RECORD
  5
1
330
0
100
AcDbSymbolTable
 70
     1
  0
BLOCK_RECORD
  5
1F
330
1
100
AcDbSymbolTableRecord
100
AcDbBlockTableRecord
  2
*Model_Space
340
22
 70
     0
280
     1
281
     0
  0
BLOCK_RECORD
  5
1B
330
1
100
AcDbSymbolTableRecord
100
AcDbBlockTableRecord
  2
*Paper_Space
340
1E
 70
     0
280
     1
281
     0
  0
BLOCK_RECORD
  5
23
330
1
100
AcDbSymbolTableRecord
100
AcDbBlockTableRecord
  2
*Paper_Space0
340
26
 70
     0
280
     1
281
     0
  0
ENDTAB
  0
ENDSEC
  0
SECTION
  2
BLOCKS
  0
BLOCK
  5
20
330
1F
100
AcDbEntity
  8
0
100
AcDbBlockBegin
  2
*Model_Space
 70
     0
 10
0.0
 20
0.0
 30
0.0
  3
*Model_Space
  1

  0
ENDBLK
  5
21
330
1F
100
AcDbEntity
  8
0
100
AcDbBlockEnd
  0
BLOCK
  5
1C
330
1B
100
AcDbEntity
 67
     1
  8
0
100
AcDbBlockBegin
  2
*Paper_Space
 70
     0
 10
0.0
 20
0.0
 30
0.0
  3
*Paper_Space
  1

  0
ENDBLK
  5
1D
330
1B
100
AcDbEntity
 67
     1
  8
0
100
AcDbBlockEnd
  0
BLOCK
  5
24
330
23
100
AcDbEntity
  8
0
100
AcDbBlockBegin
  2
*Paper_Space0
 70
     0
 10
0.0
 20
0.0
 30
0.0
  3
*Paper_Space0
  1

  0
ENDBLK
  5
25
330
23
100
AcDbEntity
  8
0
100
AcDbBlockEnd
  0
ENDSEC
  0
SECTION
  2
ENTITIES
  0
POLYLINE
  5
60
330
1F
100
AcDbEntity
  8
Depiece con dogbone
100
AcDb2dPolyline
 66
     1
 10
0.0
 20
0.0
 30
0.0000000000001705
 70
     1
  0
VERTEX
  5
61
330
60
100
AcDbEntity
  8
Depiece con dogbone
100
AcDbVertex
100
AcDb2dVertex
 10
511.7298776930133
 20
-435.6987254900216
 30
0.0000000000001705
  0
VERTEX
  5
62
330
60
100
AcDbEntity
  8
Depiece con dogbone
100
AcDbVertex
100
AcDb2dVertex
 10
454.7298776930135
 20
-442.1330230937731
 30
0.0000000000001705
  0
VERTEX
  5
63
330
60
100
AcDbEntity
  8
Depiece con dogbone
100
AcDbVertex
100
AcDb2dVertex
 10
397.7298776930135
 20
-443.1274971796521
 30
0.0000000000001705
  0
VERTEX
  5
64
330
60
100
AcDbEntity
  8
Depiece con dogbone
100
AcDbVertex
100
AcDb2dVertex
 10
340.7298776930135
 20
-438.9499750898414
 30
0.0000000000001705
  0
VERTEX
  5
65
330
60
100
AcDbEntity
  8
Depiece con dogbone
100
AcDbVertex
100
AcDb2dVertex
 10
283.7298776930135
 20
-424.3679816997793
 30
0.0000000000001705
  0
VERTEX
  5
66
330
60
100
AcDbEntity
  8
Depiece con dogbone
100
AcDbVertex
100
AcDb2dVertex
 10
248.5108337358981
 20
-424.3679816997793
 30
0.0000000000001705
  0
VERTEX
  5
67
330
60
100
AcDbEntity
  8
Depiece con dogbone
100
AcDbVertex
100
AcDb2dVertex
 10
248.5108337358982
 20
-498.7044460644591
 30
0.0000000000001705
  0
VERTEX
  5
68
330
60
100
AcDbEntity
  8
Depiece con dogbone
100
AcDbVertex
100
AcDb2dVertex
 10
588.5108337358984
 20
-498.7044460644586
 30
0.0000000000001705
  0
VERTEX
  5
69
330
60
100
AcDbEntity
  8
Depiece con dogbone
100
AcDbVertex
100
AcDb2dVertex
 10
588.5108337358979
 20
-426.5072057789387
 30
0.0000000000001705
  0
VERTEX
  5
6A
330
60
100
AcDbEntity
  8
Depiece con dogbone
100
AcDbVertex
100
AcDb2dVertex
 10
568.7298776930133
 20
-426.5072057789387
 30
0.0000000000001705
  0
SEQEND
  5
6B
330
60
100
AcDbEntity
  8
Depiece con dogbone
  0
SPLINE
  5
6C
330
1F
100
AcDbEntity
  8
Depiece con dogbone
100
AcDbSpline
210
0.0
220
0.0
230
1.0
 70
     8
 71
     3
 72
    15
 73
    11
 74
     0
 42
0.0000000001
 43
0.0000000001
 40
452.9890950251292
 40
452.9890950251292
 40
452.9890950251292
 40
452.9890950251292
 40
472.7700510680137
 40
532.7406628424914
 40
591.8142017544706
 40
648.8699762846476
 40
706.8087451475642
 40
771.1136197919267
 40
786.1136197919265
 40
806.332663749042
 40
806.332663749042
 40
806.332663749042
 40
806.332663749042
 10
561.9361570877816
 20
159.2669474950474
 30
0.0000000000001705
 10
555.3615450736877
 20
159.7676707217389
 30
0.0000000000001705
 10
528.4270015307209
 20
160.3647811458369
 30
0.0000000000002274
 10
485.9251114860546
 20
138.8549373700519
 30
0.0000000000003411
 10
429.1244881118066
 20
122.7049470539499
 30
0.0000000000002274
 10
371.1345026325858
 20
121.7582263318445
 30
0.0000000000003979
 10
309.6696652779797
 20
126.0217278755802
 30
0.0000000000003979
 10
274.1327406318129
 20
164.8062968787318
 30
0.0000000000006253
 10
240.3253707163346
 20
162.4029789238972
 30
0.0000000000005684
 10
228.6758384068201
 20
162.7453944921741
 30
0.0000000000005684
 10
221.9361570877819
 20
162.7453944921741
 30
0.0000000000005684
  0
POLYLINE
  5
6D
330
1F
100
AcDbEntity
  8
Depiece con dogbone
100
AcDb2dPolyline
 66
     1
 10
0.0
 20
0.0
 30
0.0000000000005684
  0
VERTEX
  5
6E
330
6D
100
AcDbEntity
  8
Depiece con dogbone
100
AcDbVertex
100
AcDb2dVertex
 10
221.9361570877819
 20
162.7453944921741
 30
0.0000000000005684
  0
VERTEX
  5
6F
330
6D
100
AcDbEntity
  8
Depiece con dogbone
100
AcDbVertex
100
AcDb2dVertex
 10
221.9361570877822
 20
46.27785246991763
 30
0.0000000000005684
  0
VERTEX
  5
70
330
6D
100
AcDbEntity
  8
Depiece con dogbone
100
AcDbVertex
100
AcDb2dVertex
 10
561.9361570877825
 20
46.2778524699182
 30
0.0000000000005684
  0
VERTEX
  5
71
330
6D
100
AcDbEntity
  8
Depiece con dogbone
100
AcDbVertex
100
AcDb2dVertex
 10
561.9361570877816
 20
159.2669474950474
 30
0.0000000000005684
  0
SEQEND
  5
72
330
6D
100
AcDbEntity
  8
Depiece con dogbone
  0
SPLINE
  5
73
330
1F
100
AcDbEntity
  8
Depiece con dogbone
100
AcDbSpline
210
0.0
220
0.0
230
1.0
 70
     8
 71
     3
 72
    15
 73
    11
 74
     0
 42
0.0000000001
 43
0.0000000001
 40
776.657184856911
 40
776.657184856911
 40
776.657184856911
 40
776.657184856911
 40
796.4381408997954
 40
854.067993645893
 40
911.567131411566
 40
968.5825929477837
 40
1025.825887163616
 40
1084.471875860782
 40
1099.471875860782
 40
1119.690919817898
 40
1119.690919817898
 40
1119.690919817898
 40
1119.690919817898
 10
223.0017691089336
 20
189.7252331820733
 30
-0.00000000000054
 10
229.5907722551072
 20
189.9727900953954
 30
-0.00000000000054
 10
255.4708227838194
 20
190.2341132009554
 30
-0.0000000000004832
 10
299.655340415837
 20
180.5176621871738
 30
-0.0000000000004547
 10
356.5392601328501
 20
172.415610449024
 30
-0.0000000000001421
 10
413.7930170412682
 20
171.9199843349691
 30
-0.0000000000005116
 10
471.8280635347086
 20
173.9734837475417
 30
-0.000000000000199
 10
513.1011703688196
 20
192.451494358074
 30
-0.0000000000001137
 10
544.5460542459573
 20
191.224101065395
 30
-0.0000000000000568
 10
556.2620877898953
 20
191.4095181074568
 30
-0.0000000000000284
 10
563.0017691089338
 20
191.4095181074568
 30
-0.0000000000000284
  0
POLYLINE
  5
74
330
1F
100
AcDbEntity
  8
Depiece con dogbone
100
AcDb2dPolyline
 66
     1
 10
0.0
 20
0.0
 30
-0.0000000000000284
  0
VERTEX
  5
75
330
74
100
AcDbEntity
  8
Depiece con dogbone
100
AcDbVertex
100
AcDb2dVertex
 10
563.0017691089338
 20
191.4095181074568
 30
-0.0000000000000284
  0
VERTEX
  5
76
330
74
100
AcDbEntity
  8
Depiece con dogbone
100
AcDbVertex
100
AcDb2dVertex
 10
563.0017691089333
 20
256.3824180389848
 30
-0.0000000000000284
  0
VERTEX
  5
77
330
74
100
AcDbEntity
  8
Depiece con dogbone
100
AcDbVertex
100
AcDb2dVertex
 10
223.0017691089336
 20
256.3824180389844
 30
-0.0000000000000284
  0
VERTEX
  5
78
330
74
100
AcDbEntity
  8
Depiece con dogbone
100
AcDbVertex
100
AcDb2dVertex
 10
223.0017691089336
 20
189.7252331820733
 30
-0.0000000000000284
  0
SEQEND
  5
79
330
74
100
AcDbEntity
  8
Depiece con dogbone
  0
SPLINE
  5
7A
330
1F
100
AcDbEntity
  8
Depiece con dogbone
100
AcDbSpline
210
0.0
220
0.0
230
1.0
 70
     8
 71
     3
 72
    15
 73
    11
 74
     0
 42
0.0000000001
 43
0.0000000001
 40
101.3229454034831
 40
101.3229454034831
 40
101.3229454034831
 40
101.3229454034831
 40
121.1039014463676
 40
180.9005709917833
 40
238.6500211584688
 40
295.6556000377169
 40
352.8450164658385
 40
416.2149894548359
 40
431.2149894548364
 40
451.4340334119519
 40
451.4340334119519
 40
451.4340334119519
 40
451.4340334119519
 10
174.8304082335339
 20
225.9064229964182
 30
0.0000000000004547
 10
168.2548652205577
 20
225.4180778621997
 30
0.0000000000004547
 10
141.3548137444768
 20
224.6714612945119
 30
0.0000000000005116
 10
99.62299690761206
 20
247.3885330306271
 30
0.0000000000004263
 10
41.11963892264107
 20
254.7591717753581
 30
0.0000000000006253
 10
-15.45003156506009
 20
252.9239168421862
 30
0.0000000000005969
 10
-77.36936400054655
 20
258.0474949582789
 30
0.0000000000006821
 10
-113.3299707546721
 20
219.6395793635455
 30
0.0000000000009095
 10
-146.7737619164855
 20
222.057431976404
 30
0.0000000000008242
 10
-158.4299104474279
 20
221.7096788637676
 30
0.0000000000009663
 10
-165.1695917664657
 20
221.7096788637676
 30
0.0000000000009663
  0
POLYLINE
  5
7B
330
1F
100
AcDbEntity
  8
Depiece con dogbone
100
AcDb2dPolyline
 66
     1
 10
0.0
 20
0.0
 30
0.0000000000009663
  0
VERTEX
  5
7C
330
7B
100
AcDbEntity
  8
Depiece con dogbone
100
AcDbVertex
100
AcDb2dVertex
 10
-165.1695917664657
 20
221.7096788637676
 30
0.0000000000009663
  0
VERTEX
  5
7D
330
7B
100
AcDbEntity
  8
Depiece con dogbone
100
AcDbVertex
100
AcDb2dVertex
 10
-165.1695917664654
 20
124.5834775929344
 30
0.0000000000009663
  0
VERTEX
  5
7E
330
7B
100
AcDbEntity
  8
Depiece con dogbone
100
AcDbVertex
100
AcDb2dVertex
 10
174.8304082335348
 20
124.5834775929349
 30
0.0000000000009663
  0
VERTEX
  5
7F
330
7B
100
AcDbEntity
  8
Depiece con dogbone
100
AcDbVertex
100
AcDb2dVertex
 10
174.8304082335339
 20
225.9064229964182
 30
0.0000000000009663
  0
SEQEND
  5
80
330
7B
100
AcDbEntity
  8
Depiece con dogbone
  0
SPLINE
  5
81
330
1F
100
AcDbEntity
  8
Depiece con dogbone
100
AcDbSpline
210
0.0
220
0.0
230
1.0
 70
     8
 71
     3
 72
    15
 73
    11
 74
     0
 42
0.0000000001
 43
0.0000000001
 40
409.3048293906076
 40
409.3048293906076
 40
409.3048293906076
 40
409.3048293906076
 40
429.0857854334921
 40
486.0977701857011
 40
543.1045173202441
 40
600.1046891818198
 40
657.1076423244097
 40
714.1381127672003
 40
729.1381127672003
 40
749.3571567243157
 40
749.3571567243157
 40
749.3571567243157
 40
749.3571567243157
 10
176.1157438432851
 20
106.0388702254256
 30
0.0000000000001705
 10
169.5221837763178
 20
106.0736916113098
 30
0.0000000000002274
 10
143.9229605983987
 20
106.1146736591502
 30
0.0000000000002274
 10
99.33922746038157
 20
104.7172854527296
 30
0.0000000000002842
 10
42.33742091859627
 20
103.8472869165882
 30
0.0000000000003979
 10
-14.66402421072762
 20
103.8510234828502
 30
0.0000000000004547
 10
-71.68606993319808
 20
103.8661019399403
 30
0.0000000000005684
 10
-114.6524874584607
 20
106.4452487047508
 30
0.0000000000006253
 10
-145.4053599306579
 20
106.27026294511
 30
0.0000000000006821
 10
-157.1445748376769
 20
106.2971602246723
 30
0.0000000000006821
 10
-163.8842561567151
 20
106.2971602246723
 30
0.0000000000006821
  0
POLYLINE
  5
82
330
1F
100
AcDbEntity
  8
Depiece con dogbone
100
AcDb2dPolyline
 66
     1
 10
0.0
 20
0.0
 30
0.0000000000006821
  0
VERTEX
  5
83
330
82
100
AcDbEntity
  8
Depiece con dogbone
100
AcDbVertex
100
AcDb2dVertex
 10
-163.8842561567151
 20
106.2971602246723
 30
0.0000000000006821
  0
VERTEX
  5
84
330
82
100
AcDbEntity
  8
Depiece con dogbone
100
AcDbVertex
100
AcDb2dVertex
 10
-163.8842561567149
 20
36.73404083481748
 30
0.0000000000006821
  0
VERTEX
  5
85
330
82
100
AcDbEntity
  8
Depiece con dogbone
100
AcDbVertex
100
AcDb2dVertex
 10
176.1157438432851
 20
36.73404083481816
 30
0.0000000000006821
  0
VERTEX
  5
86
330
82
100
AcDbEntity
  8
Depiece con dogbone
100
AcDbVertex
100
AcDb2dVertex
 10
176.1157438432851
 20
106.0388702254256
 30
0.0000000000006821
  0
SEQEND
  5
87
330
82
100
AcDbEntity
  8
Depiece con dogbone
  0
SPLINE
  5
88
330
1F
100
AcDbEntity
  8
Depiece con dogbone
100
AcDbSpline
210
0.0
220
0.0
230
1.0
 70
     8
 71
     3
 72
    26
 73
    22
 74
     0
 42
0.0000000001
 43
0.0000000001
 40
409.5264209562536
 40
409.5264209562536
 40
409.5264209562536
 40
409.5264209562536
 40
429.3076838859059
 40
429.3076838859059
 40
429.3076838859059
 40
486.5430324812547
 40
486.5430324812547
 40
486.5430324812547
 40
543.3266220838096
 40
543.3266220838096
 40
543.3266220838096
 40
600.3271006588676
 40
600.3271006588676
 40
600.3271006588676
 40
657.3299150807896
 40
657.3299150807896
 40
657.3299150807896
 40
714.5559023757045
 40
714.5559023757045
 40
714.5559023757045
 40
749.5566332289932
 40
749.5566332289932
 40
749.5566332289932
 40
749.5566332289932
 10
-546.7000068464645
 20
499.8412833480077
 30
-0.0000000000006111
 10
-546.6813089878704
 20
493.2479279844449
 30
-0.0000000000006111
 10
-546.6775811520567
 20
486.6536462990223
 30
-0.0000000000005969
 10
-546.7382720139342
 20
480.0603273051231
 30
-0.0000000000005826
 10
-546.9138649931881
 20
460.9843002147888
 30
-0.0000000000005542
 10
-547.6286849896101
 20
441.9157870431247
 30
-0.0000000000005258
 10
-547.9119369947673
 20
422.8412833480077
 30
-0.0000000000004974
 10
-548.1929651303615
 20
403.9165374919154
 30
-0.000000000000469
 10
-548.0491493738364
 20
384.9874385907571
 30
-0.0000000000004405
 10
-548.0438087881482
 20
366.0603273051231
 30
-0.0000000000004121
 10
-548.0384476453335
 20
347.0603612711072
 30
-0.0000000000003837
 10
-548.1726165663979
 20
328.0602972015809
 30
-0.0000000000003553
 10
-548.1601227362182
 20
309.0603273051231
 30
-0.0000000000003268
 10
-548.1476290292587
 20
290.0605447948637
 30
-0.0000000000002984
 10
-547.9884541828096
 20
271.0586869872807
 30
-0.00000000000027
 10
-547.7030495734025
 20
252.0603273051231
 30
-0.0000000000002416
 10
-547.4165417997979
 20
232.9885339448824
 30
-0.0000000000002132
 10
-547.0027453528294
 20
213.9154944784118
 30
-0.0000000000001847
 10
-546.8951947971043
 20
194.8412833480074
 30
-0.0000000000001563
 10
-546.8294151932876
 20
183.175197172786
 30
-0.0000000000001421
 10
-546.8781929198499
 20
171.5075071464057
 30
-0.0000000000001279
 10
-546.9799124487438
 20
159.8412833480076
 30
-0.0000000000001137
  0
POLYLINE
  5
89
330
1F
100
AcDbEntity
  8
Depiece con dogbone
100
AcDb2dPolyline
 66
     1
 10
0.0
 20
0.0
 30
-0.0000000000001137
  0
VERTEX
  5
8A
330
89
100
AcDbEntity
  8
Depiece con dogbone
100
AcDbVertex
100
AcDb2dVertex
 10
-546.9799124487438
 20
159.8412833480076
 30
-0.0000000000001137
  0
VERTEX
  5
8B
330
89
100
AcDbEntity
  8
Depiece con dogbone
100
AcDbVertex
100
AcDb2dVertex
 10
-477.1735858902105
 20
159.8412833480079
 30
-0.0000000000001137
  0
VERTEX
  5
8C
330
89
100
AcDbEntity
  8
Depiece con dogbone
100
AcDbVertex
100
AcDb2dVertex
 10
-477.173585890211
 20
499.8412833480077
 30
-0.0000000000001137
  0
VERTEX
  5
8D
330
89
100
AcDbEntity
  8
Depiece con dogbone
100
AcDbVertex
100
AcDb2dVertex
 10
-546.7000068464645
 20
499.8412833480077
 30
-0.0000000000001137
  0
SEQEND
  5
8E
330
89
100
AcDbEntity
  8
Depiece con dogbone
  0
POLYLINE
  5
8F
330
1F
100
AcDbEntity
  8
Depiece con dogbone
100
AcDb2dPolyline
 66
     1
 10
0.0
 20
0.0
 30
0.0000000000001119
  0
VERTEX
  5
90
330
8F
100
AcDbEntity
  8
Depiece con dogbone
100
AcDbVertex
100
AcDb2dVertex
 10
-363.0262390328133
 20
-374.6610425495685
 30
0.0000000000001119
  0
VERTEX
  5
91
330
8F
100
AcDbEntity
  8
Depiece con dogbone
100
AcDbVertex
100
AcDb2dVertex
 10
-524.9051720533082
 20
-94.27850588303207
 30
0.0000000000001119
  0
VERTEX
  5
92
330
8F
100
AcDbEntity
  8
Depiece con dogbone
100
AcDbVertex
100
AcDb2dVertex
 10
-586.075685317817
 20
-94.27850588303207
 30
0.0000000000001119
  0
VERTEX
  5
93
330
8F
100
AcDbEntity
  8
Depiece con dogbone
100
AcDbVertex
100
AcDb2dVertex
 10
-428.4456687397458
 20
-367.3017033941758
 30
0.0000000000001119
  0
SEQEND
  5
94
330
8F
100
AcDbEntity
  8
Depiece con dogbone
  0
SPLINE
  5
95
330
1F
100
AcDbEntity
  8
Depiece con dogbone
100
AcDbSpline
210
0.0
220
0.0
230
1.0
 70
     8
 71
     3
 72
    11
 73
     7
 74
     0
 42
0.0000000001
 43
0.0000000001
 40
3744.881481463932
 40
3744.881481463932
 40
3744.881481463932
 40
3744.881481463932
 40
3753.131128593268
 40
3835.214833821506
 40
3882.459434229623
 40
3978.980525370775
 40
3978.980525370775
 40
3978.980525370775
 40
3978.980525370775
 10
-428.4456687397458
 20
-367.3017033941758
 30
0.0000000000001119
 10
-430.194438578574
 20
-367.8920624910065
 30
0.0000000000001119
 10
-449.2670335676051
 20
-375.1795972891762
 30
0.0000000000001119
 10
-476.9428051194876
 20
-400.4329025457378
 30
-0.0000000000000018
 10
-525.4265960113682
 20
-422.420068680033
 30
-0.0000000000000018
 10
-561.172172353273
 20
-412.5835887024155
 30
-0.0000000000001155
 10
-586.0756853178161
 20
-408.2776769331483
 30
-0.0000000000000018
  0
POLYLINE
  5
96
330
1F
100
AcDbEntity
  8
Depiece con dogbone
100
AcDb2dPolyline
 66
     1
 10
0.0
 20
0.0
 30
-0.0000000000000018
  0
VERTEX
  5
97
330
96
100
AcDbEntity
  8
Depiece con dogbone
100
AcDbVertex
100
AcDb2dVertex
 10
-586.0756853178161
 20
-408.2776769331483
 30
-0.0000000000000018
  0
VERTEX
  5
98
330
96
100
AcDbEntity
  8
Depiece con dogbone
100
AcDbVertex
100
AcDb2dVertex
 10
-586.075685317817
 20
-494.278505883032
 30
-0.0000000000000018
  0
VERTEX
  5
99
330
96
100
AcDbEntity
  8
Depiece con dogbone
100
AcDbVertex
100
AcDb2dVertex
 10
-566.0756853178168
 20
-494.278505883032
 30
-0.0000000000000018
  0
VERTEX
  5
9A
330
96
100
AcDbEntity
  8
Depiece con dogbone
100
AcDbVertex
100
AcDb2dVertex
 10
-566.075685317817
 20
-429.3115805708901
 30
-0.0000000000000018
  0
SEQEND
  5
9B
330
96
100
AcDbEntity
  8
Depiece con dogbone
  0
ARC
  5
9C
330
1F
100
AcDbEntity
  8
Depiece con dogbone
100
AcDbCircle
 10
563.7775882789606
 20
-427.0134835320339
 30
0.0000000000000009
 40
3.25
210
0.0
220
0.0
230
-1.0
100
AcDbArc
 50
315.0000000000007
 51
135.0000000000007
  0
POLYLINE
  5
9D
330
1F
100
AcDbEntity
  8
Depiece con dogbone
100
AcDb2dPolyline
 66
     1
 10
0.0
 20
0.0
 30
-0.0000000000000022
  0
VERTEX
  5
9E
330
9D
100
AcDbEntity
  8
Depiece con dogbone
100
AcDbVertex
100
AcDb2dVertex
 10
-561.4794912401042
 20
-424.7153864931776
 30
-0.0000000000000022
  0
VERTEX
  5
9F
330
9D
100
AcDbEntity
  8
Depiece con dogbone
100
AcDbVertex
100
AcDb2dVertex
 10
-555.6718793955295
 20
-424.7153864931776
 30
-0.0000000000000022
  0
SEQEND
  5
A0
330
9D
100
AcDbEntity
  8
Depiece con dogbone
  0
ARC
  5
A1
330
1F
100
AcDbEntity
  8
Depiece con dogbone
100
AcDbCircle
 10
553.3737823566732
 20
-427.0134835320339
 30
0.0000000000000009
 40
3.25
210
0.0
220
0.0
230
-1.0
100
AcDbArc
 50
44.9999999999993
 51
224.9999999999993
  0
POLYLINE
  5
A2
330
1F
100
AcDbEntity
  8
Depiece con dogbone
100
AcDb2dPolyline
 66
     1
 10
0.0
 20
0.0
 30
0.0000000000000004
  0
VERTEX
  5
A3
330
A2
100
AcDbEntity
  8
Depiece con dogbone
100
AcDbVertex
100
AcDb2dVertex
 10
-551.075685317817
 20
-429.3115805708901
 30
0.0000000000000004
  0
VERTEX
  5
A4
330
A2
100
AcDbEntity
  8
Depiece con dogbone
100
AcDbVertex
100
AcDb2dVertex
 10
-551.0756853178168
 20
-494.278505883032
 30
0.0000000000000004
  0
VERTEX
  5
A5
330
A2
100
AcDbEntity
  8
Depiece con dogbone
100
AcDbVertex
100
AcDb2dVertex
 10
-497.0756853178169
 20
-494.2785058830322
 30
0.0000000000000004
  0
VERTEX
  5
A6
330
A2
100
AcDbEntity
  8
Depiece con dogbone
100
AcDbVertex
100
AcDb2dVertex
 10
-497.0756853178171
 20
-424.5382355960649
 30
0.0000000000000004
  0
SEQEND
  5
A7
330
A2
100
AcDbEntity
  8
Depiece con dogbone
  0
ARC
  5
A8
330
1F
100
AcDbEntity
  8
Depiece con dogbone
100
AcDbCircle
 10
494.7775882789606
 20
-422.2401385572086
 30
0.0000000000000009
 40
3.25
210
0.0
220
0.0
230
-1.0
100
AcDbArc
 50
315.0
 51
135.0
  0
POLYLINE
  5
A9
330
1F
100
AcDbEntity
  8
Depiece con dogbone
100
AcDb2dPolyline
 66
     1
 10
0.0
 20
0.0
 30
-0.0000000000000022
  0
VERTEX
  5
AA
330
A9
100
AcDbEntity
  8
Depiece con dogbone
100
AcDbVertex
100
AcDb2dVertex
 10
-492.4794912401042
 20
-419.9420415183523
 30
-0.0000000000000022
  0
VERTEX
  5
AB
330
A9
100
AcDbEntity
  8
Depiece con dogbone
100
AcDbVertex
100
AcDb2dVertex
 10
-486.6718793955291
 20
-419.9420415183522
 30
-0.0000000000000022
  0
SEQEND
  5
AC
330
A9
100
AcDbEntity
  8
Depiece con dogbone
  0
ARC
  5
AD
330
1F
100
AcDbEntity
  8
Depiece con dogbone
100
AcDbCircle
 10
484.3737823566728
 20
-422.2401385572085
 30
0.0000000000000009
 40
3.25
210
0.0
220
0.0
230
-1.0
100
AcDbArc
 50
45.0
 51
225.0
  0
POLYLINE
  5
AE
330
1F
100
AcDbEntity
  8
Depiece con dogbone
100
AcDb2dPolyline
 66
     1
 10
0.0
 20
0.0
 30
0.0000000000000004
  0
VERTEX
  5
AF
330
AE
100
AcDbEntity
  8
Depiece con dogbone
100
AcDbVertex
100
AcDb2dVertex
 10
-482.0756853178166
 20
-424.5382355960647
 30
0.0000000000000004
  0
VERTEX
  5
B0
330
AE
100
AcDbEntity
  8
Depiece con dogbone
100
AcDbVertex
100
AcDb2dVertex
 10
-482.0756853178169
 20
-494.2785058830322
 30
0.0000000000000004
  0
VERTEX
  5
B1
330
AE
100
AcDbEntity
  8
Depiece con dogbone
100
AcDbVertex
100
AcDb2dVertex
 10
-428.0756853178178
 20
-494.2785058830322
 30
0.0000000000000004
  0
VERTEX
  5
B2
330
AE
100
AcDbEntity
  8
Depiece con dogbone
100
AcDbVertex
100
AcDb2dVertex
 10
-428.075685317818
 20
-382.4071579384882
 30
0.0000000000000004
  0
SEQEND
  5
B3
330
AE
100
AcDbEntity
  8
Depiece con dogbone
  0
ARC
  5
B4
330
1F
100
AcDbEntity
  8
Depiece con dogbone
100
AcDbCircle
 10
425.7775882789616
 20
-380.109060899632
 30
0.0000000000000009
 40
3.25
210
0.0
220
0.0
230
-1.0
100
AcDbArc
 50
315.0
 51
135.0
  0
POLYLINE
  5
B5
330
1F
100
AcDbEntity
  8
Depiece con dogbone
100
AcDb2dPolyline
 66
     1
 10
0.0
 20
0.0
 30
-0.0000000000000022
  0
VERTEX
  5
B6
330
B5
100
AcDbEntity
  8
Depiece con dogbone
100
AcDbVertex
100
AcDb2dVertex
 10
-423.4794912401051
 20
-377.8109638607757
 30
-0.0000000000000022
  0
VERTEX
  5
B7
330
B5
100
AcDbEntity
  8
Depiece con dogbone
100
AcDbVertex
100
AcDb2dVertex
 10
-417.6718793955304
 20
-377.8109638607758
 30
-0.0000000000000022
  0
SEQEND
  5
B8
330
B5
100
AcDbEntity
  8
Depiece con dogbone
  0
ARC
  5
B9
330
1F
100
AcDbEntity
  8
Depiece con dogbone
100
AcDbCircle
 10
415.3737823566742
 20
-380.1090608996321
 30
0.0000000000000009
 40
3.25
210
0.0
220
0.0
230
-1.0
100
AcDbArc
 50
45.0
 51
225.0
  0
POLYLINE
  5
BA
330
1F
100
AcDbEntity
  8
Depiece con dogbone
100
AcDb2dPolyline
 66
     1
 10
0.0
 20
0.0
 30
0.0000000000000004
  0
VERTEX
  5
BB
330
BA
100
AcDbEntity
  8
Depiece con dogbone
100
AcDbVertex
100
AcDb2dVertex
 10
-413.075685317818
 20
-382.4071579384884
 30
0.0000000000000004
  0
VERTEX
  5
BC
330
BA
100
AcDbEntity
  8
Depiece con dogbone
100
AcDbVertex
100
AcDb2dVertex
 10
-413.0756853178178
 20
-494.2785058830322
 30
0.0000000000000004
  0
VERTEX
  5
BD
330
BA
100
AcDbEntity
  8
Depiece con dogbone
100
AcDbVertex
100
AcDb2dVertex
 10
-359.0756853178169
 20
-494.2785058830322
 30
0.0000000000000004
  0
VERTEX
  5
BE
330
BA
100
AcDbEntity
  8
Depiece con dogbone
100
AcDbVertex
100
AcDb2dVertex
 10
-359.0756853178171
 20
-401.7484986899115
 30
0.0000000000000004
  0
SEQEND
  5
BF
330
BA
100
AcDbEntity
  8
Depiece con dogbone
  0
ARC
  5
C0
330
1F
100
AcDbEntity
  8
Depiece con dogbone
100
AcDbCircle
 10
356.7775882789606
 20
-399.4504016510552
 30
0.0000000000000009
 40
3.25
210
0.0
220
0.0
230
-1.0
100
AcDbArc
 50
315.0
 51
135.0
  0
POLYLINE
  5
C1
330
1F
100
AcDbEntity
  8
Depiece con dogbone
100
AcDb2dPolyline
 66
     1
 10
0.0
 20
0.0
 30
-0.0000000000000022
  0
VERTEX
  5
C2
330
C1
100
AcDbEntity
  8
Depiece con dogbone
100
AcDbVertex
100
AcDb2dVertex
 10
-354.4794912401042
 20
-397.1523046121989
 30
-0.0000000000000022
  0
VERTEX
  5
C3
330
C1
100
AcDbEntity
  8
Depiece con dogbone
100
AcDbVertex
100
AcDb2dVertex
 10
-348.6718793955295
 20
-397.1523046121989
 30
-0.0000000000000022
  0
SEQEND
  5
C4
330
C1
100
AcDbEntity
  8
Depiece con dogbone
  0
ARC
  5
C5
330
1F
100
AcDbEntity
  8
Depiece con dogbone
100
AcDbCircle
 10
346.3737823566733
 20
-399.4504016510552
 30
0.0000000000000009
 40
3.25
210
0.0
220
0.0
230
-1.0
100
AcDbArc
 50
45.0
 51
225.0
  0
POLYLINE
  5
C6
330
1F
100
AcDbEntity
  8
Depiece con dogbone
100
AcDb2dPolyline
 66
     1
 10
0.0
 20
0.0
 30
0.0000000000000004
  0
VERTEX
  5
C7
330
C6
100
AcDbEntity
  8
Depiece con dogbone
100
AcDbVertex
100
AcDb2dVertex
 10
-344.0756853178171
 20
-401.7484986899115
 30
0.0000000000000004
  0
VERTEX
  5
C8
330
C6
100
AcDbEntity
  8
Depiece con dogbone
100
AcDbVertex
100
AcDb2dVertex
 10
-344.0756853178169
 20
-494.2785058830322
 30
0.0000000000000004
  0
VERTEX
  5
C9
330
C6
100
AcDbEntity
  8
Depiece con dogbone
100
AcDbVertex
100
AcDb2dVertex
 10
-293.9650643774581
 20
-494.2785058830322
 30
0.0000000000000004
  0
VERTEX
  5
CA
330
C6
100
AcDbEntity
  8
Depiece con dogbone
100
AcDbVertex
100
AcDb2dVertex
 10
-290.075685317816
 20
-494.2785058830322
 30
0.0000000000000004
  0
VERTEX
  5
CB
330
C6
100
AcDbEntity
  8
Depiece con dogbone
100
AcDbVertex
100
AcDb2dVertex
 10
-290.075685317816
 20
-433.9018000292167
 30
0.0000000000000004
  0
SEQEND
  5
CC
330
C6
100
AcDbEntity
  8
Depiece con dogbone
  0
ARC
  5
CD
330
1F
100
AcDbEntity
  8
Depiece con dogbone
100
AcDbCircle
 10
287.7775882789595
 20
-431.6037029903605
 30
0.0000000000000009
 40
3.25
210
0.0
220
0.0
230
-1.0
100
AcDbArc
 50
315.0
 51
135.0
  0
POLYLINE
  5
CE
330
1F
100
AcDbEntity
  8
Depiece con dogbone
100
AcDb2dPolyline
 66
     1
 10
0.0
 20
0.0
 30
-0.0000000000000022
  0
VERTEX
  5
CF
330
CE
100
AcDbEntity
  8
Depiece con dogbone
100
AcDbVertex
100
AcDb2dVertex
 10
-285.4794912401031
 20
-429.3056059515042
 30
-0.0000000000000022
  0
VERTEX
  5
D0
330
CE
100
AcDbEntity
  8
Depiece con dogbone
100
AcDbVertex
100
AcDb2dVertex
 10
-279.6718793955286
 20
-429.305605951504
 30
-0.0000000000000022
  0
SEQEND
  5
D1
330
CE
100
AcDbEntity
  8
Depiece con dogbone
  0
ARC
  5
D2
330
1F
100
AcDbEntity
  8
Depiece con dogbone
100
AcDbCircle
 10
277.3737823566724
 20
-431.6037029903604
 30
0.0000000000000009
 40
3.25
210
0.0
220
0.0
230
-1.0
100
AcDbArc
 50
45.0
 51
225.0
  0
POLYLINE
  5
D3
330
1F
100
AcDbEntity
  8
Depiece con dogbone
100
AcDb2dPolyline
 66
     1
 10
0.0
 20
0.0
 30
-0.0000000000000018
  0
VERTEX
  5
D4
330
D3
100
AcDbEntity
  8
Depiece con dogbone
100
AcDbVertex
100
AcDb2dVertex
 10
-275.075685317816
 20
-433.901800029216
 30
-0.0000000000000018
  0
VERTEX
  5
D5
330
D3
100
AcDbEntity
  8
Depiece con dogbone
100
AcDbVertex
100
AcDb2dVertex
 10
-275.075685317816
 20
-494.2785058830322
 30
-0.0000000000000018
  0
VERTEX
  5
D6
330
D3
100
AcDbEntity
  8
Depiece con dogbone
100
AcDbVertex
100
AcDb2dVertex
 10
-221.0756853178169
 20
-494.278505883032
 30
-0.0000000000000018
  0
VERTEX
  5
D7
330
D3
100
AcDbEntity
  8
Depiece con dogbone
100
AcDbVertex
100
AcDb2dVertex
 10
-221.0756853178169
 20
-429.1530910538507
 30
-0.0000000000000018
  0
SEQEND
  5
D8
330
D3
100
AcDbEntity
  8
Depiece con dogbone
  0
ARC
  5
D9
330
1F
100
AcDbEntity
  8
Depiece con dogbone
100
AcDbCircle
 10
218.7775882789604
 20
-426.8549940149945
 30
0.0000000000000009
 40
3.25
210
0.0
220
0.0
230
-1.0
100
AcDbArc
 50
315.0
 51
135.0
  0
POLYLINE
  5
DA
330
1F
100
AcDbEntity
  8
Depiece con dogbone
100
AcDb2dPolyline
 66
     1
 10
0.0
 20
0.0
 30
-0.0000000000000022
  0
VERTEX
  5
DB
330
DA
100
AcDbEntity
  8
Depiece con dogbone
100
AcDbVertex
100
AcDb2dVertex
 10
-216.479491240104
 20
-424.5568969761382
 30
-0.0000000000000022
  0
VERTEX
  5
DC
330
DA
100
AcDbEntity
  8
Depiece con dogbone
100
AcDbVertex
100
AcDb2dVertex
 10
-210.6718793955295
 20
-424.556896976138
 30
-0.0000000000000022
  0
SEQEND
  5
DD
330
DA
100
AcDbEntity
  8
Depiece con dogbone
  0
ARC
  5
DE
330
1F
100
AcDbEntity
  8
Depiece con dogbone
100
AcDbCircle
 10
208.3737823566733
 20
-426.8549940149943
 30
0.0000000000000009
 40
3.25
210
0.0
220
0.0
230
-1.0
100
AcDbArc
 50
45.00000000000036
 51
225.0
  0
POLYLINE
  5
DF
330
1F
100
AcDbEntity
  8
Depiece con dogbone
100
AcDb2dPolyline
 66
     1
 10
0.0
 20
0.0
 30
0.0000000000000004
  0
VERTEX
  5
E0
330
DF
100
AcDbEntity
  8
Depiece con dogbone
100
AcDbVertex
100
AcDb2dVertex
 10
-206.0756853178171
 20
-429.1530910538505
 30
0.0000000000000004
  0
VERTEX
  5
E1
330
DF
100
AcDbEntity
  8
Depiece con dogbone
100
AcDbVertex
100
AcDb2dVertex
 10
-206.0756853178169
 20
-494.278505883032
 30
0.0000000000000004
  0
VERTEX
  5
E2
330
DF
100
AcDbEntity
  8
Depiece con dogbone
100
AcDbVertex
100
AcDb2dVertex
 10
-186.0756853178171
 20
-494.278505883032
 30
0.0000000000000004
  0
VERTEX
  5
E3
330
DF
100
AcDbEntity
  8
Depiece con dogbone
100
AcDbVertex
100
AcDb2dVertex
 10
-186.0756853178175
 20
-407.8512086792189
 30
0.0000000000000004
  0
SEQEND
  5
E4
330
DF
100
AcDbEntity
  8
Depiece con dogbone
  0
SPLINE
  5
E5
330
1F
100
AcDbEntity
  8
Depiece con dogbone
100
AcDbSpline
210
0.0
220
0.0
230
1.0
 70
     8
 71
     3
 72
    11
 73
     7
 74
     0
 42
0.0000000001
 43
0.0000000001
 40
5533.734176732369
 40
5533.734176732369
 40
5533.734176732369
 40
5533.734176732369
 40
5637.180802630402
 40
5684.42540303852
 40
5766.509108266758
 40
5781.026681331408
 40
5781.026681331408
 40
5781.026681331408
 40
5781.026681331408
 10
-186.0756853178175
 20
-407.8512086792189
 30
-0.0000000000000018
 10
-213.1566821789555
 20
-411.1725754641479
 30
-0.0000000000001155
 10
-251.882163230898
 20
-425.1466154841312
 30
-0.0000000000000018
 10
-306.2636285618767
 20
-413.1085651303429
 30
-0.0000000000000018
 10
-338.2479925837743
 20
-387.5254505035075
 30
0.0000000000001119
 10
-359.7902970957687
 20
-376.2154141917417
 30
0.0000000000001119
 10
-363.0262390328133
 20
-374.6610425495685
 30
0.0000000000001119
  0
SPLINE
  5
E6
330
1F
100
AcDbEntity
  8
Depiece con dogbone
100
AcDbSpline
210
0.0
220
0.0
230
1.0
 70
     8
 71
     3
 72
    11
 73
     7
 74
     0
 42
0.0000000001
 43
0.0000000001
 40
158.4956093198489
 40
158.4956093198489
 40
158.4956093198489
 40
158.4956093198489
 40
262.4363870717057
 40
309.6809874798237
 40
391.7646927080609
 40
399.385281434199
 40
399.385281434199
 40
399.385281434199
 40
399.385281434199
 10
230.3730522414717
 20
-407.3005913400957
 30
0.0000000000004832
 10
203.7326286916005
 20
-412.5928827863431
 30
0.0000000000003695
 10
167.1355919516819
 20
-421.169093310348
 30
0.0000000000003695
 10
122.5736631298208
 20
-385.1780539797112
 30
0.0000000000003695
 10
98.64437425277568
 20
-359.0654144611474
 30
0.0000000000004832
 10
81.04141902713395
 20
-356.2440249380236
 30
0.0000000000004832
 10
79.53251081837773
 20
-356.1009732533118
 30
0.0000000000004832
  0
POLYLINE
  5
E7
330
1F
100
AcDbEntity
  8
Depiece con dogbone
100
AcDb2dPolyline
 66
     1
 10
0.0
 20
0.0
 30
0.0000000000004832
  0
VERTEX
  5
E8
330
E7
100
AcDbEntity
  8
Depiece con dogbone
100
AcDbVertex
100
AcDb2dVertex
 10
79.53251081837773
 20
-356.1009732533118
 30
0.0000000000004832
  0
VERTEX
  5
E9
330
E7
100
AcDbEntity
  8
Depiece con dogbone
100
AcDbVertex
100
AcDb2dVertex
 10
230.3730522414717
 20
-94.83749166731471
 30
0.0000000000004832
  0
VERTEX
  5
EA
330
E7
100
AcDbEntity
  8
Depiece con dogbone
100
AcDbVertex
100
AcDb2dVertex
 10
169.2025389769631
 20
-94.83749166731471
 30
0.0000000000004832
  0
VERTEX
  5
EB
330
E7
100
AcDbEntity
  8
Depiece con dogbone
100
AcDbVertex
100
AcDb2dVertex
 10
-7.814946459215818
 20
-401.4407702708606
 30
0.0000000000004832
  0
SEQEND
  5
EC
330
E7
100
AcDbEntity
  8
Depiece con dogbone
  0
SPLINE
  5
ED
330
1F
100
AcDbEntity
  8
Depiece con dogbone
100
AcDbSpline
210
0.0
220
0.0
230
1.0
 70
     8
 71
     3
 72
    10
 73
     6
 74
     0
 42
0.0000000001
 43
0.0000000001
 40
1098.680615696123
 40
1098.680615696123
 40
1098.680615696123
 40
1098.680615696123
 40
1164.861149968925
 40
1212.105750377043
 40
1308.312740979468
 40
1308.312740979468
 40
1308.312740979468
 40
1308.312740979468
 10
-7.814946459215818
 20
-401.4407702708606
 30
0.0000000000004832
 10
-23.86015246136394
 20
-412.4870894799835
 30
0.0000000000004832
 10
-52.19681603440294
 20
-429.39835212962
 30
0.0000000000005969
 10
-106.1274731973618
 20
-428.3038274795531
 30
0.0000000000005969
 10
-144.1378553763814
 20
-412.8226460685537
 30
0.0000000000005969
 10
-169.6269477585282
 20
-409.5872903593511
 30
0.0000000000004832
  0
POLYLINE
  5
EE
330
1F
100
AcDbEntity
  8
Depiece con dogbone
100
AcDb2dPolyline
 66
     1
 10
0.0
 20
0.0
 30
0.0000000000004832
  0
VERTEX
  5
EF
330
EE
100
AcDbEntity
  8
Depiece con dogbone
100
AcDbVertex
100
AcDb2dVertex
 10
-169.6269477585282
 20
-409.5872903593511
 30
0.0000000000004832
  0
VERTEX
  5
F0
330
EE
100
AcDbEntity
  8
Depiece con dogbone
100
AcDbVertex
100
AcDb2dVertex
 10
-169.6269477585282
 20
-494.8374916673147
 30
0.0000000000004832
  0
VERTEX
  5
F1
330
EE
100
AcDbEntity
  8
Depiece con dogbone
100
AcDbVertex
100
AcDb2dVertex
 10
-149.6269477585282
 20
-494.8374916673147
 30
0.0000000000004832
  0
VERTEX
  5
F2
330
EE
100
AcDbEntity
  8
Depiece con dogbone
100
AcDbVertex
100
AcDb2dVertex
 10
-149.6269477585284
 20
-432.1748410249264
 30
0.0000000000004832
  0
SEQEND
  5
F3
330
EE
100
AcDbEntity
  8
Depiece con dogbone
  0
ARC
  5
F4
330
1F
100
AcDbEntity
  8
Depiece con dogbone
100
AcDbCircle
 10
147.3288507196719
 20
-429.8767439860702
 30
0.0000000000000009
 40
3.25
210
0.0
220
0.0
230
-1.0
100
AcDbArc
 50
315.0
 51
135.0
  0
POLYLINE
  5
F5
330
1F
100
AcDbEntity
  8
Depiece con dogbone
100
AcDb2dPolyline
 66
     1
 10
0.0
 20
0.0
 30
-0.0000000000000022
  0
VERTEX
  5
F6
330
F5
100
AcDbEntity
  8
Depiece con dogbone
100
AcDbVertex
100
AcDb2dVertex
 10
-145.0307536808155
 20
-427.5786469472139
 30
-0.0000000000000022
  0
VERTEX
  5
F7
330
F5
100
AcDbEntity
  8
Depiece con dogbone
100
AcDbVertex
100
AcDb2dVertex
 10
-139.2231418362406
 20
-427.5786469472139
 30
-0.0000000000000022
  0
SEQEND
  5
F8
330
F5
100
AcDbEntity
  8
Depiece con dogbone
  0
ARC
  5
F9
330
1F
100
AcDbEntity
  8
Depiece con dogbone
100
AcDbCircle
 10
136.9250447973844
 20
-429.8767439860702
 30
0.0000000000000009
 40
3.25
210
0.0
220
0.0
230
-1.0
100
AcDbArc
 50
45.00000000000036
 51
225.0
  0
POLYLINE
  5
FA
330
1F
100
AcDbEntity
  8
Depiece con dogbone
100
AcDb2dPolyline
 66
     1
 10
0.0
 20
0.0
 30
0.0000000000000004
  0
VERTEX
  5
FB
330
FA
100
AcDbEntity
  8
Depiece con dogbone
100
AcDbVertex
100
AcDb2dVertex
 10
-134.6269477585282
 20
-432.1748410249264
 30
0.0000000000000004
  0
VERTEX
  5
FC
330
FA
100
AcDbEntity
  8
Depiece con dogbone
100
AcDbVertex
100
AcDb2dVertex
 10
-134.6269477585282
 20
-494.8374916673147
 30
0.0000000000000004
  0
VERTEX
  5
FD
330
FA
100
AcDbEntity
  8
Depiece con dogbone
100
AcDbVertex
100
AcDb2dVertex
 10
-80.62694775852815
 20
-494.8374916673147
 30
0.0000000000000004
  0
VERTEX
  5
FE
330
FA
100
AcDbEntity
  8
Depiece con dogbone
100
AcDbVertex
100
AcDb2dVertex
 10
-80.62694775852837
 20
-442.8622627743415
 30
0.0000000000000004
  0
SEQEND
  5
FF
330
FA
100
AcDbEntity
  8
Depiece con dogbone
  0
ARC
  5
100
330
1F
100
AcDbEntity
  8
Depiece con dogbone
100
AcDbCircle
 10
78.32885071967193
 20
-440.5641657354853
 30
0.0000000000000009
 40
3.25
210
0.0
220
0.0
230
-1.0
100
AcDbArc
 50
315.0000000000002
 51
135.0
  0
POLYLINE
  5
101
330
1F
100
AcDbEntity
  8
Depiece con dogbone
100
AcDb2dPolyline
 66
     1
 10
0.0
 20
0.0
 30
-0.0000000000000022
  0
VERTEX
  5
102
330
101
100
AcDbEntity
  8
Depiece con dogbone
100
AcDbVertex
100
AcDb2dVertex
 10
-76.0307536808155
 20
-438.266068696629
 30
-0.0000000000000022
  0
VERTEX
  5
103
330
101
100
AcDbEntity
  8
Depiece con dogbone
100
AcDbVertex
100
AcDb2dVertex
 10
-70.22314183624057
 20
-438.266068696629
 30
-0.0000000000000022
  0
SEQEND
  5
104
330
101
100
AcDbEntity
  8
Depiece con dogbone
  0
ARC
  5
105
330
1F
100
AcDbEntity
  8
Depiece con dogbone
100
AcDbCircle
 10
67.92504479738436
 20
-440.5641657354853
 30
0.0000000000000009
 40
3.25
210
0.0
220
0.0
230
-1.0
100
AcDbArc
 50
45.0
 51
224.9999999999998
  0
POLYLINE
  5
106
330
1F
100
AcDbEntity
  8
Depiece con dogbone
100
AcDb2dPolyline
 66
     1
 10
0.0
 20
0.0
 30
0.0000000000000004
  0
VERTEX
  5
107
330
106
100
AcDbEntity
  8
Depiece con dogbone
100
AcDbVertex
100
AcDb2dVertex
 10
-65.62694775852815
 20
-442.8622627743415
 30
0.0000000000000004
  0
VERTEX
  5
108
330
106
100
AcDbEntity
  8
Depiece con dogbone
100
AcDbVertex
100
AcDb2dVertex
 10
-65.62694775852815
 20
-494.8374916673147
 30
0.0000000000000004
  0
VERTEX
  5
109
330
106
100
AcDbEntity
  8
Depiece con dogbone
100
AcDbVertex
100
AcDb2dVertex
 10
-61.73756869888693
 20
-494.8374916673147
 30
0.0000000000000004
  0
VERTEX
  5
10A
330
106
100
AcDbEntity
  8
Depiece con dogbone
100
AcDbVertex
100
AcDb2dVertex
 10
-11.62694775852883
 20
-494.8374916673147
 30
0.0000000000000004
  0
VERTEX
  5
10B
330
106
100
AcDbEntity
  8
Depiece con dogbone
100
AcDbVertex
100
AcDb2dVertex
 10
-11.62694775852928
 20
-420.5992140750001
 30
0.0000000000000004
  0
SEQEND
  5
10C
330
106
100
AcDbEntity
  8
Depiece con dogbone
  0
ARC
  5
10D
330
1F
100
AcDbEntity
  8
Depiece con dogbone
100
AcDbCircle
 10
9.328850719672843
 20
-418.3011170361439
 30
0.0000000000000009
 40
3.25
210
0.0
220
0.0
230
-1.0
100
AcDbArc
 50
315.0000000000002
 51
135.0000000000001
  0
POLYLINE
  5
10E
330
1F
100
AcDbEntity
  8
Depiece con dogbone
100
AcDb2dPolyline
 66
     1
 10
0.0
 20
0.0
 30
-0.0000000000000022
  0
VERTEX
  5
10F
330
10E
100
AcDbEntity
  8
Depiece con dogbone
100
AcDbVertex
100
AcDb2dVertex
 10
-7.030753680816517
 20
-416.0030199972875
 30
-0.0000000000000022
  0
VERTEX
  5
110
330
10E
100
AcDbEntity
  8
Depiece con dogbone
100
AcDbVertex
100
AcDb2dVertex
 10
-1.223141836241595
 20
-416.0030199972875
 30
-0.0000000000000022
  0
SEQEND
  5
111
330
10E
100
AcDbEntity
  8
Depiece con dogbone
  0
ARC
  5
112
330
1F
100
AcDbEntity
  8
Depiece con dogbone
100
AcDbCircle
 10
-1.074955202614731
 20
-418.3011170361439
 30
0.0000000000000009
 40
3.25
210
0.0
220
0.0
230
-1.0
100
AcDbArc
 50
45.00000000000006
 51
224.9999999999999
  0
POLYLINE
  5
113
330
1F
100
AcDbEntity
  8
Depiece con dogbone
100
AcDb2dPolyline
 66
     1
 10
0.0
 20
0.0
 30
0.0000000000000004
  0
VERTEX
  5
114
330
113
100
AcDbEntity
  8
Depiece con dogbone
100
AcDbVertex
100
AcDb2dVertex
 10
3.373052241471058
 20
-420.5992140750001
 30
0.0000000000000004
  0
VERTEX
  5
115
330
113
100
AcDbEntity
  8
Depiece con dogbone
100
AcDbVertex
100
AcDb2dVertex
 10
3.373052241470944
 20
-494.8374916673147
 30
0.0000000000000004
  0
VERTEX
  5
116
330
113
100
AcDbEntity
  8
Depiece con dogbone
100
AcDbVertex
100
AcDb2dVertex
 10
57.37305224147197
 20
-494.8374916673147
 30
0.0000000000000004
  0
VERTEX
  5
117
330
113
100
AcDbEntity
  8
Depiece con dogbone
100
AcDbVertex
100
AcDb2dVertex
 10
57.37305224147185
 20
-370.7639447810849
 30
0.0000000000000004
  0
SEQEND
  5
118
330
113
100
AcDbEntity
  8
Depiece con dogbone
  0
ARC
  5
119
330
1F
100
AcDbEntity
  8
Depiece con dogbone
100
AcDbCircle
 10
-59.67114928032818
 20
-368.4658477422287
 30
0.0000000000000009
 40
3.25
210
0.0
220
0.0
230
-1.0
100
AcDbArc
 50
315.0000000000002
 51
135.0000000000001
  0
POLYLINE
  5
11A
330
1F
100
AcDbEntity
  8
Depiece con dogbone
100
AcDb2dPolyline
 66
     1
 10
0.0
 20
0.0
 30
-0.0000000000000022
  0
VERTEX
  5
11B
330
11A
100
AcDbEntity
  8
Depiece con dogbone
100
AcDbVertex
100
AcDb2dVertex
 10
61.96924631918451
 20
-366.1677507033723
 30
-0.0000000000000022
  0
VERTEX
  5
11C
330
11A
100
AcDbEntity
  8
Depiece con dogbone
100
AcDbVertex
100
AcDb2dVertex
 10
67.77685816375931
 20
-366.1677507033723
 30
-0.0000000000000022
  0
SEQEND
  5
11D
330
11A
100
AcDbEntity
  8
Depiece con dogbone
  0
ARC
  5
11E
330
1F
100
AcDbEntity
  8
Depiece con dogbone
100
AcDbCircle
 10
-70.07495520261564
 20
-368.4658477422287
 30
0.0000000000000009
 40
3.25
210
0.0
220
0.0
230
-1.0
100
AcDbArc
 50
45.0
 51
224.9999999999998
  0
POLYLINE
  5
11F
330
1F
100
AcDbEntity
  8
Depiece con dogbone
100
AcDb2dPolyline
 66
     1
 10
0.0
 20
0.0
 30
0.0000000000000004
  0
VERTEX
  5
120
330
11F
100
AcDbEntity
  8
Depiece con dogbone
100
AcDbVertex
100
AcDb2dVertex
 10
72.37305224147197
 20
-370.7639447810849
 30
0.0000000000000004
  0
VERTEX
  5
121
330
11F
100
AcDbEntity
  8
Depiece con dogbone
100
AcDbVertex
100
AcDb2dVertex
 10
72.37305224147197
 20
-494.8374916673147
 30
0.0000000000000004
  0
VERTEX
  5
122
330
11F
100
AcDbEntity
  8
Depiece con dogbone
100
AcDbVertex
100
AcDb2dVertex
 10
126.3730522414726
 20
-494.8374916673147
 30
0.0000000000000004
  0
VERTEX
  5
123
330
11F
100
AcDbEntity
  8
Depiece con dogbone
100
AcDbVertex
100
AcDb2dVertex
 10
126.3730522414725
 20
-416.7196291284628
 30
0.0000000000000004
  0
SEQEND
  5
124
330
11F
100
AcDbEntity
  8
Depiece con dogbone
  0
ARC
  5
125
330
1F
100
AcDbEntity
  8
Depiece con dogbone
100
AcDbCircle
 10
-128.6711492803288
 20
-414.4215320896066
 30
0.0000000000000009
 40
3.25
210
0.0
220
0.0
230
-1.0
100
AcDbArc
 50
315.0000000000002
 51
135.0
  0
POLYLINE
  5
126
330
1F
100
AcDbEntity
  8
Depiece con dogbone
100
AcDb2dPolyline
 66
     1
 10
0.0
 20
0.0
 30
-0.0000000000000022
  0
VERTEX
  5
127
330
126
100
AcDbEntity
  8
Depiece con dogbone
100
AcDbVertex
100
AcDb2dVertex
 10
130.9692463191852
 20
-412.1234350507502
 30
-0.0000000000000022
  0
VERTEX
  5
128
330
126
100
AcDbEntity
  8
Depiece con dogbone
100
AcDbVertex
100
AcDb2dVertex
 10
136.77685816376
 20
-412.1234350507502
 30
-0.0000000000000022
  0
SEQEND
  5
129
330
126
100
AcDbEntity
  8
Depiece con dogbone
  0
ARC
  5
12A
330
1F
100
AcDbEntity
  8
Depiece con dogbone
100
AcDbCircle
 10
-139.0749552026163
 20
-414.4215320896066
 30
0.0000000000000009
 40
3.25
210
0.0
220
0.0
230
-1.0
100
AcDbArc
 50
45.00000000000036
 51
225.0
  0
POLYLINE
  5
12B
330
1F
100
AcDbEntity
  8
Depiece con dogbone
100
AcDb2dPolyline
 66
     1
 10
0.0
 20
0.0
 30
0.0000000000000004
  0
VERTEX
  5
12C
330
12B
100
AcDbEntity
  8
Depiece con dogbone
100
AcDbVertex
100
AcDb2dVertex
 10
141.3730522414726
 20
-416.7196291284628
 30
0.0000000000000004
  0
VERTEX
  5
12D
330
12B
100
AcDbEntity
  8
Depiece con dogbone
100
AcDbVertex
100
AcDb2dVertex
 10
141.3730522414726
 20
-494.8374916673147
 30
0.0000000000000004
  0
VERTEX
  5
12E
330
12B
100
AcDbEntity
  8
Depiece con dogbone
100
AcDbVertex
100
AcDb2dVertex
 10
195.373052241472
 20
-494.8374916673147
 30
0.0000000000000004
  0
VERTEX
  5
12F
330
12B
100
AcDbEntity
  8
Depiece con dogbone
100
AcDbVertex
100
AcDb2dVertex
 10
195.3730522414718
 20
-428.563518488433
 30
0.0000000000000004
  0
SEQEND
  5
130
330
12B
100
AcDbEntity
  8
Depiece con dogbone
  0
ARC
  5
131
330
1F
100
AcDbEntity
  8
Depiece con dogbone
100
AcDbCircle
 10
-197.6711492803282
 20
-426.2654214495768
 30
0.0000000000000009
 40
3.25
210
0.0
220
0.0
230
-1.0
100
AcDbArc
 50
315.0
 51
135.0
  0
POLYLINE
  5
132
330
1F
100
AcDbEntity
  8
Depiece con dogbone
100
AcDb2dPolyline
 66
     1
 10
0.0
 20
0.0
 30
-0.0000000000000022
  0
VERTEX
  5
133
330
132
100
AcDbEntity
  8
Depiece con dogbone
100
AcDbVertex
100
AcDb2dVertex
 10
199.9692463191845
 20
-423.9673244107205
 30
-0.0000000000000022
  0
VERTEX
  5
134
330
132
100
AcDbEntity
  8
Depiece con dogbone
100
AcDbVertex
100
AcDb2dVertex
 10
205.7768581637626
 20
-423.9673244107283
 30
-0.0000000000000022
  0
SEQEND
  5
135
330
132
100
AcDbEntity
  8
Depiece con dogbone
  0
ARC
  5
136
330
1F
100
AcDbEntity
  8
Depiece con dogbone
100
AcDbCircle
 10
-208.0749552026156
 20
-426.2654214495882
 30
0.0000000000000009
 40
3.25
210
0.0
220
0.0
230
-1.0
100
AcDbArc
 50
45.00000000000036
 51
225.0
  0
POLYLINE
  5
137
330
1F
100
AcDbEntity
  8
Depiece con dogbone
100
AcDb2dPolyline
 66
     1
 10
0.0
 20
0.0
 30
0.0000000000000004
  0
VERTEX
  5
138
330
137
100
AcDbEntity
  8
Depiece con dogbone
100
AcDbVertex
100
AcDb2dVertex
 10
210.373052241472
 20
-428.5635184884444
 30
0.0000000000000004
  0
VERTEX
  5
139
330
137
100
AcDbEntity
  8
Depiece con dogbone
100
AcDbVertex
100
AcDb2dVertex
 10
210.373052241472
 20
-494.8374916673147
 30
0.0000000000000004
  0
VERTEX
  5
13A
330
137
100
AcDbEntity
  8
Depiece con dogbone
100
AcDbVertex
100
AcDb2dVertex
 10
230.3730522414717
 20
-494.8374916673147
 30
0.0000000000000004
  0
VERTEX
  5
13B
330
137
100
AcDbEntity
  8
Depiece con dogbone
100
AcDbVertex
100
AcDb2dVertex
 10
230.3730522414717
 20
-407.3005913400957
 30
0.0000000000000004
  0
SEQEND
  5
13C
330
137
100
AcDbEntity
  8
Depiece con dogbone
  0
SPLINE
  5
13D
330
1F
100
AcDbEntity
  8
Depiece con dogbone
100
AcDbSpline
210
0.0
220
0.0
230
1.0
 70
     8
 71
     3
 72
    11
 73
     7
 74
     0
 42
0.0000000001
 43
0.0000000001
 40
5610.700694930018
 40
5610.700694930018
 40
5610.700694930018
 40
5610.700694930018
 40
5714.673985293691
 40
5761.918585701809
 40
5844.002290930046
 40
5904.907420053329
 40
5904.907420053329
 40
5904.907420053329
 40
5904.907420053329
 10
452.5285779791836
 20
29.15307292102281
 30
0.0000000000000284
 10
457.9520714749482
 20
2.540327288849966
 30
-0.000000000000199
 10
466.1822927945477
 20
-33.92044471489206
 30
-0.0000000000000853
 10
428.6469420489156
 20
-77.84944918138964
 30
-0.0000000000000853
 10
392.2173956732585
 20
-110.5065305428406
 30
0.0000000000000284
 10
402.6327733599482
 20
-140.2603211177847
 30
0.0000000000001421
 10
410.363516434174
 20
-153.6621617447806
 30
0.0000000000001421
  0
POLYLINE
  5
13E
330
1F
100
AcDbEntity
  8
Depiece con dogbone
100
AcDb2dPolyline
 66
     1
 10
0.0
 20
0.0
 30
0.0000000000001421
  0
VERTEX
  5
13F
330
13E
100
AcDbEntity
  8
Depiece con dogbone
100
AcDbVertex
100
AcDb2dVertex
 10
410.363516434174
 20
-153.6621617447806
 30
0.0000000000001421
  0
VERTEX
  5
140
330
13E
100
AcDbEntity
  8
Depiece con dogbone
100
AcDbVertex
100
AcDb2dVertex
 10
140.1389051446164
 20
-309.6764138144679
 30
0.0000000000001421
  0
VERTEX
  5
141
330
13E
100
AcDbEntity
  8
Depiece con dogbone
100
AcDbVertex
100
AcDb2dVertex
 10
140.1389051446164
 20
-370.8469270789767
 30
0.0000000000001421
  0
VERTEX
  5
142
330
13E
100
AcDbEntity
  8
Depiece con dogbone
100
AcDbVertex
100
AcDb2dVertex
 10
440.883900890923
 20
-197.2117228274144
 30
0.0000000000001421
  0
SEQEND
  5
143
330
13E
100
AcDbEntity
  8
Depiece con dogbone
  0
SPLINE
  5
144
330
1F
100
AcDbEntity
  8
Depiece con dogbone
100
AcDbSpline
210
0.0
220
0.0
230
1.0
 70
     8
 71
     3
 72
    10
 73
     6
 74
     0
 42
0.0000000001
 43
0.0000000001
 40
6607.785613239208
 40
6607.785613239208
 40
6607.785613239208
 40
6607.785613239208
 40
6688.484959662253
 40
6735.729560070371
 40
6831.916910897998
 40
6831.916910897998
 40
6831.916910897998
 40
6831.916910897998
 10
440.883900890923
 20
-197.2117228274144
 30
0.0000000000001421
 10
455.1091409334735
 20
-216.6550372413844
 30
0.0000000000001421
 10
476.5989623517107
 20
-248.8885629696113
 30
0.0000000000001421
 10
473.9499445220437
 20
-307.1633384611439
 30
0.0000000000000284
 10
458.1050629206185
 20
-345.3197645967646
 30
0.0000000000000284
 10
454.9362178616802
 20
-370.8469270789776
 30
0.0000000000000284
  0
POLYLINE
  5
145
330
1F
100
AcDbEntity
  8
Depiece con dogbone
100
AcDb2dPolyline
 66
     1
 10
0.0
 20
0.0
 30
0.0000000000000284
  0
VERTEX
  5
146
330
145
100
AcDbEntity
  8
Depiece con dogbone
100
AcDbVertex
100
AcDb2dVertex
 10
454.9362178616802
 20
-370.8469270789776
 30
0.0000000000000284
  0
VERTEX
  5
147
330
145
100
AcDbEntity
  8
Depiece con dogbone
100
AcDbVertex
100
AcDb2dVertex
 10
540.1389051446165
 20
-370.8469270789774
 30
0.0000000000000284
  0
VERTEX
  5
148
330
145
100
AcDbEntity
  8
Depiece con dogbone
100
AcDbVertex
100
AcDb2dVertex
 10
540.1389051446165
 20
-350.8469270789772
 30
0.0000000000000284
  0
VERTEX
  5
149
330
145
100
AcDbEntity
  8
Depiece con dogbone
100
AcDbVertex
100
AcDb2dVertex
 10
477.6162268180202
 20
-350.8469270789769
 30
0.0000000000000284
  0
SEQEND
  5
14A
330
145
100
AcDbEntity
  8
Depiece con dogbone
  0
ARC
  5
14B
330
1F
100
AcDbEntity
  8
Depiece con dogbone
100
AcDbCircle
 10
-475.3181297791639
 20
-348.5488300401206
 30
0.0000000000000009
 40
3.25
210
0.0
220
0.0
230
-1.0
100
AcDbArc
 50
225.0
 51
45.0
  0
POLYLINE
  5
14C
330
1F
100
AcDbEntity
  8
Depiece con dogbone
100
AcDb2dPolyline
 66
     1
 10
0.0
 20
0.0
 30
-0.0000000000000022
  0
VERTEX
  5
14D
330
14C
100
AcDbEntity
  8
Depiece con dogbone
100
AcDbVertex
100
AcDb2dVertex
 10
473.0200327403077
 20
-346.2507330012644
 30
-0.0000000000000022
  0
VERTEX
  5
14E
330
14C
100
AcDbEntity
  8
Depiece con dogbone
100
AcDbVertex
100
AcDb2dVertex
 10
473.0200327403075
 20
-340.4431211566894
 30
-0.0000000000000022
  0
SEQEND
  5
14F
330
14C
100
AcDbEntity
  8
Depiece con dogbone
  0
ARC
  5
150
330
1F
100
AcDbEntity
  8
Depiece con dogbone
100
AcDbCircle
 10
-475.3181297791638
 20
-338.1450241178331
 30
0.0000000000000009
 40
3.25
210
0.0
220
0.0
230
-1.0
100
AcDbArc
 50
315.0
 51
135.0
  0
POLYLINE
  5
151
330
1F
100
AcDbEntity
  8
Depiece con dogbone
100
AcDb2dPolyline
 66
     1
 10
0.0
 20
0.0
 30
0.0000000000000004
  0
VERTEX
  5
152
330
151
100
AcDbEntity
  8
Depiece con dogbone
100
AcDbVertex
100
AcDb2dVertex
 10
477.6162268180202
 20
-335.8469270789769
 30
0.0000000000000004
  0
VERTEX
  5
153
330
151
100
AcDbEntity
  8
Depiece con dogbone
100
AcDbVertex
100
AcDb2dVertex
 10
540.1389051446165
 20
-335.8469270789772
 30
0.0000000000000004
  0
VERTEX
  5
154
330
151
100
AcDbEntity
  8
Depiece con dogbone
100
AcDbVertex
100
AcDb2dVertex
 10
540.1389051446167
 20
-281.8469270789772
 30
0.0000000000000004
  0
VERTEX
  5
155
330
151
100
AcDbEntity
  8
Depiece con dogbone
100
AcDbVertex
100
AcDb2dVertex
 10
489.1581503375226
 20
-281.8469270789769
 30
0.0000000000000004
  0
SEQEND
  5
156
330
151
100
AcDbEntity
  8
Depiece con dogbone
  0
ARC
  5
157
330
1F
100
AcDbEntity
  8
Depiece con dogbone
100
AcDbCircle
 10
-486.8600532986664
 20
-279.5488300401206
 30
0.0000000000000009
 40
3.25
210
0.0
220
0.0
230
-1.0
100
AcDbArc
 50
225.0
 51
45.0
  0
POLYLINE
  5
158
330
1F
100
AcDbEntity
  8
Depiece con dogbone
100
AcDb2dPolyline
 66
     1
 10
0.0
 20
0.0
 30
-0.0000000000000022
  0
VERTEX
  5
159
330
158
100
AcDbEntity
  8
Depiece con dogbone
100
AcDbVertex
100
AcDb2dVertex
 10
484.5619562598102
 20
-277.2507330012644
 30
-0.0000000000000022
  0
VERTEX
  5
15A
330
158
100
AcDbEntity
  8
Depiece con dogbone
100
AcDbVertex
100
AcDb2dVertex
 10
484.56195625981
 20
-271.4431211566895
 30
-0.0000000000000022
  0
SEQEND
  5
15B
330
158
100
AcDbEntity
  8
Depiece con dogbone
  0
ARC
  5
15C
330
1F
100
AcDbEntity
  8
Depiece con dogbone
100
AcDbCircle
 10
-486.8600532986663
 20
-269.1450241178331
 30
0.0000000000000009
 40
3.25
210
0.0
220
0.0
230
-1.0
100
AcDbArc
 50
315.0
 51
135.0
  0
POLYLINE
  5
15D
330
1F
100
AcDbEntity
  8
Depiece con dogbone
100
AcDb2dPolyline
 66
     1
 10
0.0
 20
0.0
 30
0.0000000000000004
  0
VERTEX
  5
15E
330
15D
100
AcDbEntity
  8
Depiece con dogbone
100
AcDbVertex
100
AcDb2dVertex
 10
489.1581503375226
 20
-266.8469270789769
 30
0.0000000000000004
  0
VERTEX
  5
15F
330
15D
100
AcDbEntity
  8
Depiece con dogbone
100
AcDbVertex
100
AcDb2dVertex
 10
540.1389051446167
 20
-266.8469270789772
 30
0.0000000000000004
  0
VERTEX
  5
160
330
15D
100
AcDbEntity
  8
Depiece con dogbone
100
AcDbVertex
100
AcDb2dVertex
 10
540.1389051446167
 20
-212.846927078978
 30
0.0000000000000004
  0
VERTEX
  5
161
330
15D
100
AcDbEntity
  8
Depiece con dogbone
100
AcDbVertex
100
AcDb2dVertex
 10
468.422810582609
 20
-212.8469270789778
 30
0.0000000000000004
  0
SEQEND
  5
162
330
15D
100
AcDbEntity
  8
Depiece con dogbone
  0
ARC
  5
163
330
1F
100
AcDbEntity
  8
Depiece con dogbone
100
AcDbCircle
 10
-466.1247135437528
 20
-210.5488300401215
 30
0.0000000000000009
 40
3.25
210
0.0
220
0.0
230
-1.0
100
AcDbArc
 50
225.0
 51
45.0
  0
POLYLINE
  5
164
330
1F
100
AcDbEntity
  8
Depiece con dogbone
100
AcDb2dPolyline
 66
     1
 10
0.0
 20
0.0
 30
-0.0000000000000022
  0
VERTEX
  5
165
330
164
100
AcDbEntity
  8
Depiece con dogbone
100
AcDbVertex
100
AcDb2dVertex
 10
463.8266165048965
 20
-208.2507330012653
 30
-0.0000000000000022
  0
VERTEX
  5
166
330
164
100
AcDbEntity
  8
Depiece con dogbone
100
AcDbVertex
100
AcDb2dVertex
 10
463.8266165048963
 20
-202.4431211566904
 30
-0.0000000000000022
  0
SEQEND
  5
167
330
164
100
AcDbEntity
  8
Depiece con dogbone
  0
ARC
  5
168
330
1F
100
AcDbEntity
  8
Depiece con dogbone
100
AcDbCircle
 10
-466.1247135437526
 20
-200.1450241178341
 30
0.0000000000000009
 40
3.25
210
0.0
220
0.0
230
-1.0
100
AcDbArc
 50
315.0000000000003
 51
135.0
  0
POLYLINE
  5
169
330
1F
100
AcDbEntity
  8
Depiece con dogbone
100
AcDb2dPolyline
 66
     1
 10
0.0
 20
0.0
 30
0.0000000000000004
  0
VERTEX
  5
16A
330
169
100
AcDbEntity
  8
Depiece con dogbone
100
AcDbVertex
100
AcDb2dVertex
 10
468.422810582609
 20
-197.8469270789778
 30
0.0000000000000004
  0
VERTEX
  5
16B
330
169
100
AcDbEntity
  8
Depiece con dogbone
100
AcDbVertex
100
AcDb2dVertex
 10
540.1389051446167
 20
-197.8469270789779
 30
0.0000000000000004
  0
VERTEX
  5
16C
330
169
100
AcDbEntity
  8
Depiece con dogbone
100
AcDbVertex
100
AcDb2dVertex
 10
540.1389051446172
 20
-143.8469270789771
 30
0.0000000000000004
  0
VERTEX
  5
16D
330
169
100
AcDbEntity
  8
Depiece con dogbone
100
AcDbVertex
100
AcDb2dVertex
 10
415.2678475323301
 20
-143.8469270789769
 30
0.0000000000000004
  0
SEQEND
  5
16E
330
169
100
AcDbEntity
  8
Depiece con dogbone
  0
ARC
  5
16F
330
1F
100
AcDbEntity
  8
Depiece con dogbone
100
AcDbCircle
 10
-412.9697504934739
 20
-141.5488300401206
 30
0.0000000000000009
 40
3.25
210
0.0
220
0.0
230
-1.0
100
AcDbArc
 50
225.0
 51
45.0
  0
POLYLINE
  5
170
330
1F
100
AcDbEntity
  8
Depiece con dogbone
100
AcDb2dPolyline
 66
     1
 10
0.0
 20
0.0
 30
-0.0000000000000022
  0
VERTEX
  5
171
330
170
100
AcDbEntity
  8
Depiece con dogbone
100
AcDbVertex
100
AcDb2dVertex
 10
410.6716534546177
 20
-139.2507330012644
 30
-0.0000000000000022
  0
VERTEX
  5
172
330
170
100
AcDbEntity
  8
Depiece con dogbone
100
AcDbVertex
100
AcDb2dVertex
 10
410.6716534546175
 20
-133.4431211566894
 30
-0.0000000000000022
  0
SEQEND
  5
173
330
170
100
AcDbEntity
  8
Depiece con dogbone
  0
ARC
  5
174
330
1F
100
AcDbEntity
  8
Depiece con dogbone
100
AcDbCircle
 10
-412.9697504934738
 20
-131.1450241178332
 30
0.0000000000000009
 40
3.25
210
0.0
220
0.0
230
-1.0
100
AcDbArc
 50
315.0000000000003
 51
135.0
  0
POLYLINE
  5
175
330
1F
100
AcDbEntity
  8
Depiece con dogbone
100
AcDb2dPolyline
 66
     1
 10
0.0
 20
0.0
 30
0.0000000000000004
  0
VERTEX
  5
176
330
175
100
AcDbEntity
  8
Depiece con dogbone
100
AcDbVertex
100
AcDb2dVertex
 10
415.2678475323301
 20
-128.8469270789769
 30
0.0000000000000004
  0
VERTEX
  5
177
330
175
100
AcDbEntity
  8
Depiece con dogbone
100
AcDbVertex
100
AcDb2dVertex
 10
540.1389051446172
 20
-128.8469270789771
 30
0.0000000000000004
  0
VERTEX
  5
178
330
175
100
AcDbEntity
  8
Depiece con dogbone
100
AcDbVertex
100
AcDb2dVertex
 10
540.1389051446174
 20
-78.73630613861835
 30
0.0000000000000004
  0
VERTEX
  5
179
330
175
100
AcDbEntity
  8
Depiece con dogbone
100
AcDbVertex
100
AcDb2dVertex
 10
540.1389051446174
 20
-74.84692707897622
 30
0.0000000000000004
  0
VERTEX
  5
17A
330
175
100
AcDbEntity
  8
Depiece con dogbone
100
AcDbVertex
100
AcDb2dVertex
 10
460.6933174128376
 20
-74.84692707897634
 30
0.0000000000000004
  0
SEQEND
  5
17B
330
175
100
AcDbEntity
  8
Depiece con dogbone
  0
ARC
  5
17C
330
1F
100
AcDbEntity
  8
Depiece con dogbone
100
AcDbCircle
 10
-458.3952203739814
 20
-72.54883004012007
 30
0.0000000000000009
 40
3.25
210
0.0
220
0.0
230
-1.0
100
AcDbArc
 50
225.0000000000004
 51
45.00000000000036
  0
POLYLINE
  5
17D
330
1F
100
AcDbEntity
  8
Depiece con dogbone
100
AcDb2dPolyline
 66
     1
 10
0.0
 20
0.0
 30
-0.0000000000000022
  0
VERTEX
  5
17E
330
17D
100
AcDbEntity
  8
Depiece con dogbone
100
AcDbVertex
100
AcDb2dVertex
 10
456.0971233351252
 20
-70.2507330012638
 30
-0.0000000000000022
  0
VERTEX
  5
17F
330
17D
100
AcDbEntity
  8
Depiece con dogbone
100
AcDbVertex
100
AcDb2dVertex
 10
456.097123335125
 20
-64.44312115668887
 30
-0.0000000000000022
  0
SEQEND
  5
180
330
17D
100
AcDbEntity
  8
Depiece con dogbone
  0
ARC
  5
181
330
1F
100
AcDbEntity
  8
Depiece con dogbone
100
AcDbCircle
 10
-458.3952203739813
 20
-62.14502411783261
 30
0.0000000000000009
 40
3.25
210
0.0
220
0.0
230
-1.0
100
AcDbArc
 50
315.0000000000002
 51
135.0
  0
POLYLINE
  5
182
330
1F
100
AcDbEntity
  8
Depiece con dogbone
100
AcDb2dPolyline
 66
     1
 10
0.0
 20
0.0
 30
0.0000000000000004
  0
VERTEX
  5
183
330
182
100
AcDbEntity
  8
Depiece con dogbone
100
AcDbVertex
100
AcDb2dVertex
 10
460.6933174128376
 20
-59.84692707897634
 30
0.0000000000000004
  0
VERTEX
  5
184
330
182
100
AcDbEntity
  8
Depiece con dogbone
100
AcDbVertex
100
AcDb2dVertex
 10
540.1389051446174
 20
-59.84692707897628
 30
0.0000000000000004
  0
VERTEX
  5
185
330
182
100
AcDbEntity
  8
Depiece con dogbone
100
AcDbVertex
100
AcDb2dVertex
 10
540.1389051446172
 20
-5.846927078977188
 30
0.0000000000000004
  0
VERTEX
  5
186
330
182
100
AcDbEntity
  8
Depiece con dogbone
100
AcDbVertex
100
AcDb2dVertex
 10
473.7487129106678
 20
-5.846927078977075
 30
0.0000000000000004
  0
SEQEND
  5
187
330
182
100
AcDbEntity
  8
Depiece con dogbone
  0
ARC
  5
188
330
1F
100
AcDbEntity
  8
Depiece con dogbone
100
AcDbCircle
 10
-471.4506158718116
 20
-3.548830040120748
 30
0.0000000000000009
 40
3.25
210
0.0
220
0.0
230
-1.0
100
AcDbArc
 50
225.0000000000003
 51
45.00000000000023
  0
POLYLINE
  5
189
330
1F
100
AcDbEntity
  8
Depiece con dogbone
100
AcDb2dPolyline
 66
     1
 10
0.0
 20
0.0
 30
0.0000000000000284
  0
VERTEX
  5
18A
330
189
100
AcDbEntity
  8
Depiece con dogbone
100
AcDbVertex
100
AcDb2dVertex
 10
469.152518832935
 20
-1.250733001284544
 30
0.0000000000000284
  0
VERTEX
  5
18B
330
189
100
AcDbEntity
  8
Depiece con dogbone
100
AcDbVertex
100
AcDb2dVertex
 10
469.1525188329552
 20
4.5568788433105
 30
0.0000000000000284
  0
SEQEND
  5
18C
330
189
100
AcDbEntity
  8
Depiece con dogbone
  0
ARC
  5
18D
330
1F
100
AcDbEntity
  8
Depiece con dogbone
100
AcDbCircle
 10
-471.4506158718115
 20
6.854975882166713
 30
0.0000000000000009
 40
3.25
210
0.0
220
0.0
230
-1.0
100
AcDbArc
 50
315.0000000000002
 51
135.0
  0
POLYLINE
  5
18E
330
1F
100
AcDbEntity
  8
Depiece con dogbone
100
AcDb2dPolyline
 66
     1
 10
0.0
 20
0.0
 30
0.0000000000000004
  0
VERTEX
  5
18F
330
18E
100
AcDbEntity
  8
Depiece con dogbone
100
AcDbVertex
100
AcDb2dVertex
 10
473.7487129106678
 20
9.153072921022925
 30
0.0000000000000004
  0
VERTEX
  5
190
330
18E
100
AcDbEntity
  8
Depiece con dogbone
100
AcDbVertex
100
AcDb2dVertex
 10
540.1389051446172
 20
9.153072921022812
 30
0.0000000000000004
  0
VERTEX
  5
191
330
18E
100
AcDbEntity
  8
Depiece con dogbone
100
AcDbVertex
100
AcDb2dVertex
 10
540.1389051446172
 20
29.15307292102258
 30
0.0000000000000004
  0
VERTEX
  5
192
330
18E
100
AcDbEntity
  8
Depiece con dogbone
100
AcDbVertex
100
AcDb2dVertex
 10
452.5285779791836
 20
29.15307292102281
 30
0.0000000000000004
  0
SEQEND
  5
193
330
18E
100
AcDbEntity
  8
Depiece con dogbone
  0
ARC
  5
194
330
1F
100
AcDbEntity
  8
Depiece con dogbone
100
AcDbCircle
 10
146.0770843949495
 20
-52.29357321847132
 30
0.0000000000000009
 40
3.25
210
0.0
220
0.0
230
-1.0
100
AcDbArc
 50
225.0000000000007
 51
45.00000000000018
  0
POLYLINE
  5
195
330
1F
100
AcDbEntity
  8
Depiece con dogbone
100
AcDb2dPolyline
 66
     1
 10
0.0
 20
0.0
 30
0.0000000000000004
  0
VERTEX
  5
196
330
195
100
AcDbEntity
  8
Depiece con dogbone
100
AcDbVertex
100
AcDb2dVertex
 10
-148.3751814338057
 20
-49.99547617961505
 30
0.0000000000000004
  0
VERTEX
  5
197
330
195
100
AcDbEntity
  8
Depiece con dogbone
100
AcDbVertex
100
AcDb2dVertex
 10
-148.3751814338055
 20
14.97505579503738
 30
0.0000000000000004
  0
VERTEX
  5
198
330
195
100
AcDbEntity
  8
Depiece con dogbone
100
AcDbVertex
100
AcDb2dVertex
 10
-168.3751814338055
 20
14.97505579503738
 30
0.0000000000000004
  0
VERTEX
  5
199
330
195
100
AcDbEntity
  8
Depiece con dogbone
100
AcDbVertex
100
AcDb2dVertex
 10
-168.3751814338055
 20
-71.56838696703002
 30
0.0000000000000004
  0
SEQEND
  5
19A
330
195
100
AcDbEntity
  8
Depiece con dogbone
  0
SPLINE
  5
19B
330
1F
100
AcDbEntity
  8
Depiece con dogbone
100
AcDbSpline
210
0.0
220
0.0
230
1.0
 70
     8
 71
     3
 72
    10
 73
     6
 74
     0
 42
0.0000000001
 43
0.0000000001
 40
6640.445604709601
 40
6640.445604709601
 40
6640.445604709601
 40
6640.445604709601
 40
6743.944188349735
 40
6791.188788757852
 40
6871.377335075803
 40
6871.377335075803
 40
6871.377335075803
 40
6871.377335075803
 10
-168.3751814338055
 20
-71.56838696703002
 30
0.0
 10
-141.3423094328026
 20
-68.04181881534586
 30
0.0000000000002274
 10
-102.8458276476465
 20
-54.64795825967306
 30
0.0
 10
-49.94911019775081
 20
-69.12946702269991
 30
0.0
 10
-22.24248196787748
 20
-91.75112413141082
 30
0.0
 10
-4.622221787450414
 20
-101.3964982076991
 30
0.0
  0
POLYLINE
  5
19C
330
1F
100
AcDbEntity
  8
Depiece con dogbone
100
AcDb2dPolyline
 66
     1
 10
0.0
 20
0.0
 30
0.0
  0
VERTEX
  5
19D
330
19C
100
AcDbEntity
  8
Depiece con dogbone
100
AcDbVertex
100
AcDb2dVertex
 10
-4.622221787450414
 20
-101.3964982076991
 30
0.0
  0
VERTEX
  5
19E
330
19C
100
AcDbEntity
  8
Depiece con dogbone
100
AcDbVertex
100
AcDb2dVertex
 10
-168.3751814338053
 20
-385.0249442049627
 30
0.0
  0
VERTEX
  5
19F
330
19C
100
AcDbEntity
  8
Depiece con dogbone
100
AcDbVertex
100
AcDb2dVertex
 10
-107.2046681692967
 20
-385.0249442049626
 30
0.0
  0
VERTEX
  5
1A0
330
19C
100
AcDbEntity
  8
Depiece con dogbone
100
AcDbVertex
100
AcDb2dVertex
 10
48.82080598326759
 20
-114.780895697696
 30
0.0
  0
SEQEND
  5
1A1
330
19C
100
AcDbEntity
  8
Depiece con dogbone
  0
SPLINE
  5
1A2
330
1F
100
AcDbEntity
  8
Depiece con dogbone
100
AcDbSpline
210
0.0
220
0.0
230
1.0
 70
     8
 71
     3
 72
    11
 73
     7
 74
     0
 42
0.0000000001
 43
0.0000000001
 40
7554.51348321702
 40
7554.51348321702
 40
7554.51348321702
 40
7554.51348321702
 40
7597.893568427494
 40
7679.977273655732
 40
7727.221874063849
 40
7823.708495526174
 40
7823.708495526174
 40
7823.708495526174
 40
7823.708495526174
 10
48.82080598326759
 20
-114.780895697696
 30
0.0
 10
58.31620659677272
 20
-114.14397111447
 30
0.0
 10
85.53993859307407
 20
-107.2814740989565
 30
0.0
 10
121.1641673179273
 20
-75.81712186778722
 30
0.0000000000002274
 10
170.6713363989575
 20
-56.3158394827386
 30
0.0000000000002274
 10
206.6591240490572
 20
-66.75641503710906
 30
0.0000000000002274
 10
231.6248185661945
 20
-70.94420755883132
 30
0.0
  0
POLYLINE
  5
1A3
330
1F
100
AcDbEntity
  8
Depiece con dogbone
100
AcDb2dPolyline
 66
     1
 10
0.0
 20
0.0
 30
0.0
  0
VERTEX
  5
1A4
330
1A3
100
AcDbEntity
  8
Depiece con dogbone
100
AcDbVertex
100
AcDb2dVertex
 10
231.6248185661945
 20
-70.94420755883132
 30
0.0
  0
VERTEX
  5
1A5
330
1A3
100
AcDbEntity
  8
Depiece con dogbone
100
AcDbVertex
100
AcDb2dVertex
 10
231.6248185661944
 20
14.9750557950376
 30
0.0
  0
VERTEX
  5
1A6
330
1A3
100
AcDbEntity
  8
Depiece con dogbone
100
AcDbVertex
100
AcDb2dVertex
 10
211.6248185661944
 20
14.9750557950376
 30
0.0
  0
VERTEX
  5
1A7
330
1A3
100
AcDbEntity
  8
Depiece con dogbone
100
AcDbVertex
100
AcDb2dVertex
 10
211.6248185661944
 20
-49.73357951785729
 30
0.0
  0
SEQEND
  5
1A8
330
1A3
100
AcDbEntity
  8
Depiece con dogbone
  0
ARC
  5
1A9
330
1F
100
AcDbEntity
  8
Depiece con dogbone
100
AcDbCircle
 10
-209.3267215273381
 20
-52.03167655671356
 30
0.0000000000000009
 40
3.25
210
0.0
220
0.0
230
-1.0
100
AcDbArc
 50
135.0
 51
314.9999999999999
  0
POLYLINE
  5
1AA
330
1F
100
AcDbEntity
  8
Depiece con dogbone
100
AcDb2dPolyline
 66
     1
 10
0.0
 20
0.0
 30
-0.0000000000000022
  0
VERTEX
  5
1AB
330
1AA
100
AcDbEntity
  8
Depiece con dogbone
100
AcDbVertex
100
AcDb2dVertex
 10
207.0286244884817
 20
-54.32977359556983
 30
-0.0000000000000022
  0
VERTEX
  5
1AC
330
1AA
100
AcDbEntity
  8
Depiece con dogbone
100
AcDbVertex
100
AcDb2dVertex
 10
201.221012643907
 20
-54.32977359556995
 30
-0.0000000000000022
  0
SEQEND
  5
1AD
330
1AA
100
AcDbEntity
  8
Depiece con dogbone
  0
ARC
  5
1AE
330
1F
100
AcDbEntity
  8
Depiece con dogbone
100
AcDbCircle
 10
-198.9229156050507
 20
-52.03167655671368
 30
0.0000000000000009
 40
3.25
210
0.0
220
0.0
230
-1.0
100
AcDbArc
 50
225.0000000000007
 51
45.00000000000018
  0
POLYLINE
  5
1AF
330
1F
100
AcDbEntity
  8
Depiece con dogbone
100
AcDb2dPolyline
 66
     1
 10
0.0
 20
0.0
 30
0.0000000000000004
  0
VERTEX
  5
1B0
330
1AF
100
AcDbEntity
  8
Depiece con dogbone
100
AcDbVertex
100
AcDb2dVertex
 10
196.6248185661944
 20
-49.73357951785741
 30
0.0000000000000004
  0
VERTEX
  5
1B1
330
1AF
100
AcDbEntity
  8
Depiece con dogbone
100
AcDbVertex
100
AcDb2dVertex
 10
196.6248185661942
 20
14.9750557950376
 30
0.0000000000000004
  0
VERTEX
  5
1B2
330
1AF
100
AcDbEntity
  8
Depiece con dogbone
100
AcDbVertex
100
AcDb2dVertex
 10
142.6248185661942
 20
14.9750557950376
 30
0.0000000000000004
  0
VERTEX
  5
1B3
330
1AF
100
AcDbEntity
  8
Depiece con dogbone
100
AcDbVertex
100
AcDb2dVertex
 10
142.6248185661944
 20
-52.62599041276954
 30
0.0000000000000004
  0
SEQEND
  5
1B4
330
1AF
100
AcDbEntity
  8
Depiece con dogbone
  0
ARC
  5
1B5
330
1F
100
AcDbEntity
  8
Depiece con dogbone
100
AcDbCircle
 10
-140.3267215273381
 20
-54.92408745162581
 30
0.0000000000000009
 40
3.25
210
0.0
220
0.0
230
-1.0
100
AcDbArc
 50
135.0
 51
314.9999999999999
  0
POLYLINE
  5
1B6
330
1F
100
AcDbEntity
  8
Depiece con dogbone
100
AcDb2dPolyline
 66
     1
 10
0.0
 20
0.0
 30
-0.0000000000000022
  0
VERTEX
  5
1B7
330
1B6
100
AcDbEntity
  8
Depiece con dogbone
100
AcDbVertex
100
AcDb2dVertex
 10
138.0286244884817
 20
-57.22218449048208
 30
-0.0000000000000022
  0
VERTEX
  5
1B8
330
1B6
100
AcDbEntity
  8
Depiece con dogbone
100
AcDbVertex
100
AcDb2dVertex
 10
132.221012643907
 20
-57.22218449048219
 30
-0.0000000000000022
  0
SEQEND
  5
1B9
330
1B6
100
AcDbEntity
  8
Depiece con dogbone
  0
ARC
  5
1BA
330
1F
100
AcDbEntity
  8
Depiece con dogbone
100
AcDbCircle
 10
-129.9229156050507
 20
-54.92408745162592
 30
0.0000000000000009
 40
3.25
210
0.0
220
0.0
230
-1.0
100
AcDbArc
 50
225.0000000000007
 51
45.00000000000018
  0
POLYLINE
  5
1BB
330
1F
100
AcDbEntity
  8
Depiece con dogbone
100
AcDb2dPolyline
 66
     1
 10
0.0
 20
0.0
 30
0.0000000000000004
  0
VERTEX
  5
1BC
330
1BB
100
AcDbEntity
  8
Depiece con dogbone
100
AcDbVertex
100
AcDb2dVertex
 10
127.6248185661944
 20
-52.62599041276965
 30
0.0000000000000004
  0
VERTEX
  5
1BD
330
1BB
100
AcDbEntity
  8
Depiece con dogbone
100
AcDbVertex
100
AcDb2dVertex
 10
127.6248185661942
 20
14.9750557950376
 30
0.0000000000000004
  0
VERTEX
  5
1BE
330
1BB
100
AcDbEntity
  8
Depiece con dogbone
100
AcDbVertex
100
AcDb2dVertex
 10
123.7354395065532
 20
14.9750557950376
 30
0.0000000000000004
  0
VERTEX
  5
1BF
330
1BB
100
AcDbEntity
  8
Depiece con dogbone
100
AcDbVertex
100
AcDb2dVertex
 10
73.62481856619509
 20
14.9750557950376
 30
0.0000000000000004
  0
VERTEX
  5
1C0
330
1BB
100
AcDbEntity
  8
Depiece con dogbone
100
AcDbVertex
100
AcDb2dVertex
 10
73.62481856619532
 20
-93.41784515237904
 30
0.0000000000000004
  0
SEQEND
  5
1C1
330
1BB
100
AcDbEntity
  8
Depiece con dogbone
  0
ARC
  5
1C2
330
1F
100
AcDbEntity
  8
Depiece con dogbone
100
AcDbCircle
 10
-71.32672152733899
 20
-95.71594219123531
 30
0.0000000000000009
 40
3.25
210
0.0
220
0.0
230
-1.0
100
AcDbArc
 50
135.0000000000004
 51
315.0
  0
POLYLINE
  5
1C3
330
1F
100
AcDbEntity
  8
Depiece con dogbone
100
AcDb2dPolyline
 66
     1
 10
0.0
 20
0.0
 30
-0.0000000000000022
  0
VERTEX
  5
1C4
330
1C3
100
AcDbEntity
  8
Depiece con dogbone
100
AcDbVertex
100
AcDb2dVertex
 10
69.02862448848266
 20
-98.01403923009158
 30
-0.0000000000000022
  0
VERTEX
  5
1C5
330
1C3
100
AcDbEntity
  8
Depiece con dogbone
100
AcDbVertex
100
AcDb2dVertex
 10
63.22101264390797
 20
-98.0140392300917
 30
-0.0000000000000022
  0
SEQEND
  5
1C6
330
1C3
100
AcDbEntity
  8
Depiece con dogbone
  0
ARC
  5
1C7
330
1F
100
AcDbEntity
  8
Depiece con dogbone
100
AcDbCircle
 10
-60.92291560505164
 20
-95.71594219123543
 30
0.0000000000000009
 40
3.25
210
0.0
220
0.0
230
-1.0
100
AcDbArc
 50
225.0000000000005
 51
45.00000000000018
  0
POLYLINE
  5
1C8
330
1F
100
AcDbEntity
  8
Depiece con dogbone
100
AcDb2dPolyline
 66
     1
 10
0.0
 20
0.0
 30
0.0000000000000004
  0
VERTEX
  5
1C9
330
1C8
100
AcDbEntity
  8
Depiece con dogbone
100
AcDbVertex
100
AcDb2dVertex
 10
58.62481856619532
 20
-93.41784515237916
 30
0.0000000000000004
  0
VERTEX
  5
1CA
330
1C8
100
AcDbEntity
  8
Depiece con dogbone
100
AcDbVertex
100
AcDb2dVertex
 10
58.62481856619509
 20
14.9750557950376
 30
0.0000000000000004
  0
VERTEX
  5
1CB
330
1C8
100
AcDbEntity
  8
Depiece con dogbone
100
AcDbVertex
100
AcDb2dVertex
 10
4.624818566194179
 20
14.9750557950376
 30
0.0000000000000004
  0
VERTEX
  5
1CC
330
1C8
100
AcDbEntity
  8
Depiece con dogbone
100
AcDbVertex
100
AcDb2dVertex
 10
4.624818566194406
 20
-81.75169553073286
 30
0.0000000000000004
  0
SEQEND
  5
1CD
330
1C8
100
AcDbEntity
  8
Depiece con dogbone
  0
ARC
  5
1CE
330
1F
100
AcDbEntity
  8
Depiece con dogbone
100
AcDbCircle
 10
-2.32672152733808
 20
-84.04979256958913
 30
0.0000000000000009
 40
3.25
210
0.0
220
0.0
230
-1.0
100
AcDbArc
 50
135.0000000000003
 51
315.0
  0
POLYLINE
  5
1CF
330
1F
100
AcDbEntity
  8
Depiece con dogbone
100
AcDb2dPolyline
 66
     1
 10
0.0
 20
0.0
 30
-0.0000000000000022
  0
VERTEX
  5
1D0
330
1CF
100
AcDbEntity
  8
Depiece con dogbone
100
AcDbVertex
100
AcDb2dVertex
 10
0.0286244884817535
 20
-86.3478896084454
 30
-0.0000000000000022
  0
VERTEX
  5
1D1
330
1CF
100
AcDbEntity
  8
Depiece con dogbone
100
AcDbVertex
100
AcDb2dVertex
 10
-5.778987356092941
 20
-86.34788960844551
 30
-0.0000000000000022
  0
SEQEND
  5
1D2
330
1CF
100
AcDbEntity
  8
Depiece con dogbone
  0
ARC
  5
1D3
330
1F
100
AcDbEntity
  8
Depiece con dogbone
100
AcDbCircle
 10
8.077084394949267
 20
-84.04979256958924
 30
0.0000000000000009
 40
3.25
210
0.0
220
0.0
230
-1.0
100
AcDbArc
 50
225.0000000000005
 51
45.00000000000013
  0
POLYLINE
  5
1D4
330
1F
100
AcDbEntity
  8
Depiece con dogbone
100
AcDb2dPolyline
 66
     1
 10
0.0
 20
0.0
 30
0.0000000000000004
  0
VERTEX
  5
1D5
330
1D4
100
AcDbEntity
  8
Depiece con dogbone
100
AcDbVertex
100
AcDb2dVertex
 10
-10.37518143380548
 20
-81.75169553073297
 30
0.0000000000000004
  0
VERTEX
  5
1D6
330
1D4
100
AcDbEntity
  8
Depiece con dogbone
100
AcDbVertex
100
AcDb2dVertex
 10
-10.37518143380593
 20
14.9750557950376
 30
0.0000000000000004
  0
VERTEX
  5
1D7
330
1D4
100
AcDbEntity
  8
Depiece con dogbone
100
AcDbVertex
100
AcDb2dVertex
 10
-64.37518143380684
 20
14.97505579503738
 30
0.0000000000000004
  0
VERTEX
  5
1D8
330
1D4
100
AcDbEntity
  8
Depiece con dogbone
100
AcDbVertex
100
AcDb2dVertex
 10
-64.37518143380662
 20
-47.08593498416084
 30
0.0000000000000004
  0
SEQEND
  5
1D9
330
1D4
100
AcDbEntity
  8
Depiece con dogbone
  0
ARC
  5
1DA
330
1F
100
AcDbEntity
  8
Depiece con dogbone
100
AcDbCircle
 10
66.67327847266306
 20
-49.38403202301711
 30
0.0000000000000009
 40
3.25
210
0.0
220
0.0
230
-1.0
100
AcDbArc
 50
135.0000000000004
 51
315.0000000000001
  0
POLYLINE
  5
1DB
330
1F
100
AcDbEntity
  8
Depiece con dogbone
100
AcDb2dPolyline
 66
     1
 10
0.0
 20
0.0
 30
-0.0000000000000022
  0
VERTEX
  5
1DC
330
1DB
100
AcDbEntity
  8
Depiece con dogbone
100
AcDbVertex
100
AcDb2dVertex
 10
-68.9713755115195
 20
-51.68212906187338
 30
-0.0000000000000022
  0
VERTEX
  5
1DD
330
1DB
100
AcDbEntity
  8
Depiece con dogbone
100
AcDbVertex
100
AcDb2dVertex
 10
-74.77898735609419
 20
-51.6821290618735
 30
-0.0000000000000022
  0
SEQEND
  5
1DE
330
1DB
100
AcDbEntity
  8
Depiece con dogbone
  0
ARC
  5
1DF
330
1F
100
AcDbEntity
  8
Depiece con dogbone
100
AcDbCircle
 10
77.0770843949504
 20
-49.38403202301723
 30
0.0000000000000009
 40
3.25
210
0.0
220
0.0
230
-1.0
100
AcDbArc
 50
225.0000000000005
 51
45.00000000000018
  0
POLYLINE
  5
1E0
330
1F
100
AcDbEntity
  8
Depiece con dogbone
100
AcDb2dPolyline
 66
     1
 10
0.0
 20
0.0
 30
0.0000000000000004
  0
VERTEX
  5
1E1
330
1E0
100
AcDbEntity
  8
Depiece con dogbone
100
AcDbVertex
100
AcDb2dVertex
 10
-79.37518143380662
 20
-47.08593498416096
 30
0.0000000000000004
  0
VERTEX
  5
1E2
330
1E0
100
AcDbEntity
  8
Depiece con dogbone
100
AcDbVertex
100
AcDb2dVertex
 10
-79.37518143380684
 20
14.97505579503738
 30
0.0000000000000004
  0
VERTEX
  5
1E3
330
1E0
100
AcDbEntity
  8
Depiece con dogbone
100
AcDbVertex
100
AcDb2dVertex
 10
-133.3751814338059
 20
14.97505579503738
 30
0.0000000000000004
  0
VERTEX
  5
1E4
330
1E0
100
AcDbEntity
  8
Depiece con dogbone
100
AcDbVertex
100
AcDb2dVertex
 10
-133.3751814338057
 20
-49.99547617961494
 30
0.0000000000000004
  0
SEQEND
  5
1E5
330
1E0
100
AcDbEntity
  8
Depiece con dogbone
  0
ARC
  5
1E6
330
1F
100
AcDbEntity
  8
Depiece con dogbone
100
AcDbCircle
 10
135.6732784726622
 20
-52.29357321847121
 30
0.0000000000000009
 40
3.25
210
0.0
220
0.0
230
-1.0
100
AcDbArc
 50
135.0
 51
314.9999999999999
  0
POLYLINE
  5
1E7
330
1F
100
AcDbEntity
  8
Depiece con dogbone
100
AcDb2dPolyline
 66
     1
 10
0.0
 20
0.0
 30
-0.0000000000000022
  0
VERTEX
  5
1E8
330
1E7
100
AcDbEntity
  8
Depiece con dogbone
100
AcDbVertex
100
AcDb2dVertex
 10
-137.9713755115186
 20
-54.59167025732748
 30
-0.0000000000000022
  0
VERTEX
  5
1E9
330
1E7
100
AcDbEntity
  8
Depiece con dogbone
100
AcDbVertex
100
AcDb2dVertex
 10
-143.7789873560933
 20
-54.59167025732759
 30
-0.0000000000000022
  0
SEQEND
  5
1EA
330
1E7
100
AcDbEntity
  8
Depiece con dogbone
  0
ARC
  5
1EB
330
1F
100
AcDbEntity
  8
Depiece con dogbone
100
AcDbCircle
 10
563.7775882789608
 20
-52.36933987056514
 30
0.0000000000000009
 40
3.25
210
0.0
220
0.0
230
-1.0
100
AcDbArc
 50
224.9999999999996
 51
44.99999999999947
  0
POLYLINE
  5
1EC
330
1F
100
AcDbEntity
  8
Depiece con dogbone
100
AcDb2dPolyline
 66
     1
 10
0.0
 20
0.0
 30
0.0000000000000004
  0
VERTEX
  5
1ED
330
1EC
100
AcDbEntity
  8
Depiece con dogbone
100
AcDbVertex
100
AcDb2dVertex
 10
-566.075685317817
 20
-50.07124283170887
 30
0.0000000000000004
  0
VERTEX
  5
1EE
330
1EC
100
AcDbEntity
  8
Depiece con dogbone
100
AcDbVertex
100
AcDb2dVertex
 10
-566.0756853178173
 20
16.07091419513492
 30
0.0000000000000004
  0
VERTEX
  5
1EF
330
1EC
100
AcDbEntity
  8
Depiece con dogbone
100
AcDbVertex
100
AcDb2dVertex
 10
-586.075685317817
 20
16.07091419513492
 30
0.0000000000000004
  0
VERTEX
  5
1F0
330
1EC
100
AcDbEntity
  8
Depiece con dogbone
100
AcDbVertex
100
AcDb2dVertex
 10
-586.075685317817
 20
-71.02300543200093
 30
0.0000000000000004
  0
SEQEND
  5
1F1
330
1EC
100
AcDbEntity
  8
Depiece con dogbone
  0
SPLINE
  5
1F2
330
1F
100
AcDbEntity
  8
Depiece con dogbone
100
AcDbSpline
210
0.0
220
0.0
230
1.0
 70
     8
 71
     3
 72
    11
 73
     7
 74
     0
 42
0.0000000001
 43
0.0000000001
 40
214.7793049331397
 40
214.7793049331397
 40
214.7793049331397
 40
214.7793049331397
 40
318.5234233966916
 40
365.7680238048096
 40
447.8517290330468
 40
494.0495880639204
 40
494.0495880639204
 40
494.0495880639204
 40
494.0495880639204
 10
-586.075685317817
 20
-71.02300543200093
 30
0.0
 10
-559.2644523197221
 20
-66.52028353656206
 30
0.0
 10
-521.8334182757433
 20
-55.82758000007951
 30
0.0
 10
-473.4091404621605
 20
-82.39570654477998
 30
0.0
 10
-439.455310380072
 20
-114.9797367869847
 30
0.0
 10
-412.2021698639904
 20
-116.9926229984688
 30
0.0
 10
-402.1657006329756
 20
-115.6006371698687
 30
0.0
  0
POLYLINE
  5
1F3
330
1F
100
AcDbEntity
  8
Depiece con dogbone
100
AcDb2dPolyline
 66
     1
 10
0.0
 20
0.0
 30
0.0
  0
VERTEX
  5
1F4
330
1F3
100
AcDbEntity
  8
Depiece con dogbone
100
AcDbVertex
100
AcDb2dVertex
 10
-402.1657006329756
 20
-115.6006371698687
 30
0.0
  0
VERTEX
  5
1F5
330
1F3
100
AcDbEntity
  8
Depiece con dogbone
100
AcDbVertex
100
AcDb2dVertex
 10
-247.2461985823257
 20
-383.9290858048649
 30
0.0
  0
VERTEX
  5
1F6
330
1F3
100
AcDbEntity
  8
Depiece con dogbone
100
AcDbVertex
100
AcDb2dVertex
 10
-186.0756853178171
 20
-383.9290858048649
 30
0.0
  0
VERTEX
  5
1F7
330
1F3
100
AcDbEntity
  8
Depiece con dogbone
100
AcDbVertex
100
AcDb2dVertex
 10
-352.5885598119069
 20
-95.52032706676155
 30
0.0
  0
SEQEND
  5
1F8
330
1F3
100
AcDbEntity
  8
Depiece con dogbone
  0
SPLINE
  5
1F9
330
1F
100
AcDbEntity
  8
Depiece con dogbone
100
AcDbSpline
210
0.0
220
0.0
230
1.0
 70
     8
 71
     3
 72
    11
 73
     7
 74
     0
 42
0.0000000001
 43
0.0000000001
 40
1180.493621696777
 40
1180.493621696777
 40
1180.493621696777
 40
1180.493621696777
 40
1182.584906972263
 40
1264.6686122005
 40
1311.913212608618
 40
1408.24162037488
 40
1408.24162037488
 40
1408.24162037488
 40
1408.24162037488
 10
-352.5885598119069
 20
-95.52032706676155
 30
0.0
 10
-352.1130165533726
 20
-95.23276833212824
 30
0.0
 10
-332.9664095684362
 20
-83.57774813424638
 30
0.0000000000002274
 10
-302.7299639045507
 20
-60.47800915493363
 30
0.0000000000002274
 10
-248.4526007922171
 20
-52.56247585221652
 30
0.0000000000002274
 10
-211.3332934136645
 20
-65.82381440338068
 30
0.0000000000002274
 10
-186.075685317818
 20
-69.47146429502928
 30
0.0
  0
POLYLINE
  5
1FA
330
1F
100
AcDbEntity
  8
Depiece con dogbone
100
AcDb2dPolyline
 66
     1
 10
0.0
 20
0.0
 30
0.0
  0
VERTEX
  5
1FB
330
1FA
100
AcDbEntity
  8
Depiece con dogbone
100
AcDbVertex
100
AcDb2dVertex
 10
-186.075685317818
 20
-69.47146429502928
 30
0.0
  0
VERTEX
  5
1FC
330
1FA
100
AcDbEntity
  8
Depiece con dogbone
100
AcDbVertex
100
AcDb2dVertex
 10
-186.0756853178171
 20
16.07091419513503
 30
0.0
  0
VERTEX
  5
1FD
330
1FA
100
AcDbEntity
  8
Depiece con dogbone
100
AcDbVertex
100
AcDb2dVertex
 10
-206.0756853178175
 20
16.07091419513503
 30
0.0
  0
VERTEX
  5
1FE
330
1FA
100
AcDbEntity
  8
Depiece con dogbone
100
AcDbVertex
100
AcDb2dVertex
 10
-206.0756853178171
 20
-47.46878767820337
 30
0.0
  0
SEQEND
  5
1FF
330
1FA
100
AcDbEntity
  8
Depiece con dogbone
  0
ARC
  5
200
330
1F
100
AcDbEntity
  8
Depiece con dogbone
100
AcDbCircle
 10
208.3737823566735
 20
-49.76688471705964
 30
0.0000000000000009
 40
3.25
210
0.0
220
0.0
230
-1.0
100
AcDbArc
 50
135.0
 51
314.9999999999999
  0
POLYLINE
  5
201
330
1F
100
AcDbEntity
  8
Depiece con dogbone
100
AcDb2dPolyline
 66
     1
 10
0.0
 20
0.0
 30
-0.0000000000000022
  0
VERTEX
  5
202
330
201
100
AcDbEntity
  8
Depiece con dogbone
100
AcDbVertex
100
AcDb2dVertex
 10
-210.67187939553
 20
-52.06498175591591
 30
-0.0000000000000022
  0
VERTEX
  5
203
330
201
100
AcDbEntity
  8
Depiece con dogbone
100
AcDbVertex
100
AcDb2dVertex
 10
-216.4794912401047
 20
-52.06498175591602
 30
-0.0000000000000022
  0
SEQEND
  5
204
330
201
100
AcDbEntity
  8
Depiece con dogbone
  0
ARC
  5
205
330
1F
100
AcDbEntity
  8
Depiece con dogbone
100
AcDbCircle
 10
218.7775882789609
 20
-49.76688471705975
 30
0.0000000000000009
 40
3.25
210
0.0
220
0.0
230
-1.0
100
AcDbArc
 50
225.0000000000007
 51
45.00000000000018
  0
POLYLINE
  5
206
330
1F
100
AcDbEntity
  8
Depiece con dogbone
100
AcDb2dPolyline
 66
     1
 10
0.0
 20
0.0
 30
0.0000000000000004
  0
VERTEX
  5
207
330
206
100
AcDbEntity
  8
Depiece con dogbone
100
AcDbVertex
100
AcDb2dVertex
 10
-221.0756853178171
 20
-47.46878767820348
 30
0.0000000000000004
  0
VERTEX
  5
208
330
206
100
AcDbEntity
  8
Depiece con dogbone
100
AcDbVertex
100
AcDb2dVertex
 10
-221.0756853178175
 20
16.07091419513503
 30
0.0000000000000004
  0
VERTEX
  5
209
330
206
100
AcDbEntity
  8
Depiece con dogbone
100
AcDbVertex
100
AcDb2dVertex
 10
-275.0756853178175
 20
16.07091419513515
 30
0.0000000000000004
  0
VERTEX
  5
20A
330
206
100
AcDbEntity
  8
Depiece con dogbone
100
AcDbVertex
100
AcDb2dVertex
 10
-275.0756853178171
 20
-42.33861230158928
 30
0.0000000000000004
  0
SEQEND
  5
20B
330
206
100
AcDbEntity
  8
Depiece con dogbone
  0
ARC
  5
20C
330
1F
100
AcDbEntity
  8
Depiece con dogbone
100
AcDbCircle
 10
277.3737823566735
 20
-44.63670934044561
 30
0.0000000000000009
 40
3.25
210
0.0
220
0.0
230
-1.0
100
AcDbArc
 50
135.0
 51
314.9999999999999
  0
POLYLINE
  5
20D
330
1F
100
AcDbEntity
  8
Depiece con dogbone
100
AcDb2dPolyline
 66
     1
 10
0.0
 20
0.0
 30
-0.0000000000000022
  0
VERTEX
  5
20E
330
20D
100
AcDbEntity
  8
Depiece con dogbone
100
AcDbVertex
100
AcDb2dVertex
 10
-279.67187939553
 20
-46.93480637930188
 30
-0.0000000000000022
  0
VERTEX
  5
20F
330
20D
100
AcDbEntity
  8
Depiece con dogbone
100
AcDbVertex
100
AcDb2dVertex
 10
-285.4794912401047
 20
-46.93480637930199
 30
-0.0000000000000022
  0
SEQEND
  5
210
330
20D
100
AcDbEntity
  8
Depiece con dogbone
  0
ARC
  5
211
330
1F
100
AcDbEntity
  8
Depiece con dogbone
100
AcDbCircle
 10
287.7775882789609
 20
-44.63670934044572
 30
0.0000000000000009
 40
3.25
210
0.0
220
0.0
230
-1.0
100
AcDbArc
 50
225.0000000000004
 51
45.00000000000018
  0
POLYLINE
  5
212
330
1F
100
AcDbEntity
  8
Depiece con dogbone
100
AcDb2dPolyline
 66
     1
 10
0.0
 20
0.0
 30
0.0000000000000004
  0
VERTEX
  5
213
330
212
100
AcDbEntity
  8
Depiece con dogbone
100
AcDbVertex
100
AcDb2dVertex
 10
-290.0756853178171
 20
-42.33861230158939
 30
0.0000000000000004
  0
VERTEX
  5
214
330
212
100
AcDbEntity
  8
Depiece con dogbone
100
AcDbVertex
100
AcDb2dVertex
 10
-290.0756853178175
 20
16.07091419513515
 30
0.0000000000000004
  0
VERTEX
  5
215
330
212
100
AcDbEntity
  8
Depiece con dogbone
100
AcDbVertex
100
AcDb2dVertex
 10
-344.0756853178166
 20
16.07091419513515
 30
0.0000000000000004
  0
VERTEX
  5
216
330
212
100
AcDbEntity
  8
Depiece con dogbone
100
AcDbVertex
100
AcDb2dVertex
 10
-344.0756853178162
 20
-73.6813248379311
 30
0.0000000000000004
  0
SEQEND
  5
217
330
212
100
AcDbEntity
  8
Depiece con dogbone
  0
ARC
  5
218
330
1F
100
AcDbEntity
  8
Depiece con dogbone
100
AcDbCircle
 10
346.3737823566726
 20
-75.97942187678737
 30
0.0000000000000009
 40
3.25
210
0.0
220
0.0
230
-1.0
100
AcDbArc
 50
135.0
 51
314.9999999999998
  0
POLYLINE
  5
219
330
1F
100
AcDbEntity
  8
Depiece con dogbone
100
AcDb2dPolyline
 66
     1
 10
0.0
 20
0.0
 30
-0.0000000000000022
  0
VERTEX
  5
21A
330
219
100
AcDbEntity
  8
Depiece con dogbone
100
AcDbVertex
100
AcDb2dVertex
 10
-348.6718793955291
 20
-78.27751891564364
 30
-0.0000000000000022
  0
VERTEX
  5
21B
330
219
100
AcDbEntity
  8
Depiece con dogbone
100
AcDbVertex
100
AcDb2dVertex
 10
-354.4794912401038
 20
-78.27751891564375
 30
-0.0000000000000022
  0
SEQEND
  5
21C
330
219
100
AcDbEntity
  8
Depiece con dogbone
  0
ARC
  5
21D
330
1F
100
AcDbEntity
  8
Depiece con dogbone
100
AcDbCircle
 10
356.77758827896
 20
-75.97942187678748
 30
0.0000000000000009
 40
3.25
210
0.0
220
0.0
230
-1.0
100
AcDbArc
 50
225.0000000000004
 51
45.00000000000018
  0
POLYLINE
  5
21E
330
1F
100
AcDbEntity
  8
Depiece con dogbone
100
AcDb2dPolyline
 66
     1
 10
0.0
 20
0.0
 30
0.0000000000000004
  0
VERTEX
  5
21F
330
21E
100
AcDbEntity
  8
Depiece con dogbone
100
AcDbVertex
100
AcDb2dVertex
 10
-359.0756853178162
 20
-73.68132483793121
 30
0.0000000000000004
  0
VERTEX
  5
220
330
21E
100
AcDbEntity
  8
Depiece con dogbone
100
AcDbVertex
100
AcDb2dVertex
 10
-359.0756853178164
 20
16.07091419513515
 30
0.0000000000000004
  0
VERTEX
  5
221
330
21E
100
AcDbEntity
  8
Depiece con dogbone
100
AcDbVertex
100
AcDb2dVertex
 10
-413.0756853178173
 20
16.07091419513503
 30
0.0000000000000004
  0
VERTEX
  5
222
330
21E
100
AcDbEntity
  8
Depiece con dogbone
100
AcDbVertex
100
AcDb2dVertex
 10
-413.0756853178171
 20
-98.72906840574646
 30
0.0000000000000004
  0
SEQEND
  5
223
330
21E
100
AcDbEntity
  8
Depiece con dogbone
  0
ARC
  5
224
330
1F
100
AcDbEntity
  8
Depiece con dogbone
100
AcDbCircle
 10
415.3737823566735
 20
-101.0271654446027
 30
0.0000000000000009
 40
3.25
210
0.0
220
0.0
230
-1.0
100
AcDbArc
 50
135.0
 51
314.9999999999998
  0
POLYLINE
  5
225
330
1F
100
AcDbEntity
  8
Depiece con dogbone
100
AcDb2dPolyline
 66
     1
 10
0.0
 20
0.0
 30
-0.0000000000000022
  0
VERTEX
  5
226
330
225
100
AcDbEntity
  8
Depiece con dogbone
100
AcDbVertex
100
AcDb2dVertex
 10
-417.67187939553
 20
-103.325262483459
 30
-0.0000000000000022
  0
VERTEX
  5
227
330
225
100
AcDbEntity
  8
Depiece con dogbone
100
AcDbVertex
100
AcDb2dVertex
 10
-423.4794912401047
 20
-103.3252624834591
 30
-0.0000000000000022
  0
SEQEND
  5
228
330
225
100
AcDbEntity
  8
Depiece con dogbone
  0
ARC
  5
229
330
1F
100
AcDbEntity
  8
Depiece con dogbone
100
AcDbCircle
 10
425.7775882789609
 20
-101.0271654446028
 30
0.0000000000000009
 40
3.25
210
0.0
220
0.0
230
-1.0
100
AcDbArc
 50
225.0000000000004
 51
45.00000000000018
  0
POLYLINE
  5
22A
330
1F
100
AcDbEntity
  8
Depiece con dogbone
100
AcDb2dPolyline
 66
     1
 10
0.0
 20
0.0
 30
0.0000000000000004
  0
VERTEX
  5
22B
330
22A
100
AcDbEntity
  8
Depiece con dogbone
100
AcDbVertex
100
AcDb2dVertex
 10
-428.0756853178171
 20
-98.72906840574657
 30
0.0000000000000004
  0
VERTEX
  5
22C
330
22A
100
AcDbEntity
  8
Depiece con dogbone
100
AcDbVertex
100
AcDb2dVertex
 10
-428.0756853178173
 20
16.07091419513503
 30
0.0000000000000004
  0
VERTEX
  5
22D
330
22A
100
AcDbEntity
  8
Depiece con dogbone
100
AcDbVertex
100
AcDb2dVertex
 10
-478.1863062581761
 20
16.07091419513503
 30
0.0000000000000004
  0
VERTEX
  5
22E
330
22A
100
AcDbEntity
  8
Depiece con dogbone
100
AcDbVertex
100
AcDb2dVertex
 10
-482.0756853178182
 20
16.07091419513503
 30
0.0000000000000004
  0
VERTEX
  5
22F
330
22A
100
AcDbEntity
  8
Depiece con dogbone
100
AcDbVertex
100
AcDb2dVertex
 10
-482.0756853178178
 20
-54.4871306345502
 30
0.0000000000000004
  0
SEQEND
  5
230
330
22A
100
AcDbEntity
  8
Depiece con dogbone
  0
ARC
  5
231
330
1F
100
AcDbEntity
  8
Depiece con dogbone
100
AcDbCircle
 10
484.3737823566742
 20
-56.78522767340647
 30
0.0000000000000009
 40
3.25
210
0.0
220
0.0
230
-1.0
100
AcDbArc
 50
135.0
 51
314.9999999999999
  0
POLYLINE
  5
232
330
1F
100
AcDbEntity
  8
Depiece con dogbone
100
AcDb2dPolyline
 66
     1
 10
0.0
 20
0.0
 30
-0.0000000000000022
  0
VERTEX
  5
233
330
232
100
AcDbEntity
  8
Depiece con dogbone
100
AcDbVertex
100
AcDb2dVertex
 10
-486.6718793955307
 20
-59.08332471226274
 30
-0.0000000000000022
  0
VERTEX
  5
234
330
232
100
AcDbEntity
  8
Depiece con dogbone
100
AcDbVertex
100
AcDb2dVertex
 10
-492.4794912401053
 20
-59.08332471226285
 30
-0.0000000000000022
  0
SEQEND
  5
235
330
232
100
AcDbEntity
  8
Depiece con dogbone
  0
ARC
  5
236
330
1F
100
AcDbEntity
  8
Depiece con dogbone
100
AcDbCircle
 10
494.7775882789616
 20
-56.78522767340658
 30
0.0000000000000009
 40
3.25
210
0.0
220
0.0
230
-1.0
100
AcDbArc
 50
225.0000000000004
 51
45.00000000000018
  0
POLYLINE
  5
237
330
1F
100
AcDbEntity
  8
Depiece con dogbone
100
AcDb2dPolyline
 66
     1
 10
0.0
 20
0.0
 30
0.0000000000000004
  0
VERTEX
  5
238
330
237
100
AcDbEntity
  8
Depiece con dogbone
100
AcDbVertex
100
AcDb2dVertex
 10
-497.0756853178178
 20
-54.48713063455031
 30
0.0000000000000004
  0
VERTEX
  5
239
330
237
100
AcDbEntity
  8
Depiece con dogbone
100
AcDbVertex
100
AcDb2dVertex
 10
-497.0756853178182
 20
16.07091419513503
 30
0.0000000000000004
  0
VERTEX
  5
23A
330
237
100
AcDbEntity
  8
Depiece con dogbone
100
AcDbVertex
100
AcDb2dVertex
 10
-551.0756853178173
 20
16.07091419513492
 30
0.0000000000000004
  0
VERTEX
  5
23B
330
237
100
AcDbEntity
  8
Depiece con dogbone
100
AcDbVertex
100
AcDb2dVertex
 10
-551.0756853178173
 20
-50.07124283170984
 30
0.0000000000000004
  0
SEQEND
  5
23C
330
237
100
AcDbEntity
  8
Depiece con dogbone
  0
ARC
  5
23D
330
1F
100
AcDbEntity
  8
Depiece con dogbone
100
AcDbCircle
 10
553.3737823566735
 20
-52.36933987056503
 30
0.0000000000000009
 40
3.25
210
0.0
220
0.0
230
-1.0
100
AcDbArc
 50
135.0000000000007
 51
315.0000000000006
  0
POLYLINE
  5
23E
330
1F
100
AcDbEntity
  8
Depiece con dogbone
100
AcDb2dPolyline
 66
     1
 10
0.0
 20
0.0
 30
-0.0000000000000022
  0
VERTEX
  5
23F
330
23E
100
AcDbEntity
  8
Depiece con dogbone
100
AcDbVertex
100
AcDb2dVertex
 10
-555.6718793955299
 20
-54.6674369094213
 30
-0.0000000000000022
  0
VERTEX
  5
240
330
23E
100
AcDbEntity
  8
Depiece con dogbone
100
AcDbVertex
100
AcDb2dVertex
 10
-561.4794912401046
 20
-54.66743690942141
 30
-0.0000000000000022
  0
SEQEND
  5
241
330
23E
100
AcDbEntity
  8
Depiece con dogbone
  0
SPLINE
  5
242
330
1F
100
AcDbEntity
  8
Depiece con dogbone
100
AcDbSpline
210
0.0
220
0.0
230
1.0
 70
     8
 71
     3
 72
    11
 73
     7
 74
     0
 42
0.0000000001
 43
0.0000000001
 40
3262.470262910472
 40
3262.470262910472
 40
3262.470262910472
 40
3262.470262910472
 40
3366.310907994757
 40
3413.555508402875
 40
3495.639213631113
 40
3500.588535656009
 40
3500.588535656009
 40
3500.588535656009
 40
3500.588535656009
 10
-187.3961538540439
 20
142.9336065032873
 30
0.0
 10
-214.1228153761618
 20
138.0442020599794
 30
-0.0000000000001137
 10
-251.1423858812546
 20
128.3954620582558
 30
0.0
 10
-297.6635545188097
 20
159.6063446832338
 30
0.0
 10
-322.3999453540292
 20
184.8666093830468
 30
0.0
 10
-339.8971032313387
 20
189.5234472648501
 30
0.0
 10
-340.8967356913511
 20
189.751694590981
 30
0.0
  0
POLYLINE
  5
243
330
1F
100
AcDbEntity
  8
Depiece con dogbone
100
AcDb2dPolyline
 66
     1
 10
0.0
 20
0.0
 30
0.0
  0
VERTEX
  5
244
330
243
100
AcDbEntity
  8
Depiece con dogbone
100
AcDbVertex
100
AcDb2dVertex
 10
-340.8967356913511
 20
189.751694590981
 30
0.0
  0
VERTEX
  5
245
330
243
100
AcDbEntity
  8
Depiece con dogbone
100
AcDbVertex
100
AcDb2dVertex
 10
-187.3961538540439
 20
455.6225013245817
 30
0.0
  0
VERTEX
  5
246
330
243
100
AcDbEntity
  8
Depiece con dogbone
100
AcDbVertex
100
AcDb2dVertex
 10
-248.5666671185525
 20
455.6225013245817
 30
0.0
  0
VERTEX
  5
247
330
243
100
AcDbEntity
  8
Depiece con dogbone
100
AcDbVertex
100
AcDb2dVertex
 10
-418.1693508123336
 20
161.862036066919
 30
0.0
  0
SEQEND
  5
248
330
243
100
AcDbEntity
  8
Depiece con dogbone
  0
SPLINE
  5
249
330
1F
100
AcDbEntity
  8
Depiece con dogbone
100
AcDbSpline
210
0.0
220
0.0
230
1.0
 70
     8
 71
     3
 72
    11
 73
     7
 74
     0
 42
0.0000000001
 43
0.0000000001
 40
4190.374347261564
 40
4190.374347261564
 40
4190.374347261564
 40
4190.374347261564
 40
4190.511897772956
 40
4272.595603001193
 40
4319.840203409312
 40
4416.108446151909
 40
4416.108446151909
 40
4416.108446151909
 40
4416.108446151909
 10
-418.1693508123336
 20
161.862036066919
 30
0.0
 10
-418.2014034887139
 20
161.8407075852908
 30
0.0
 10
-437.3618556399588
 20
149.0890199003145
 30
0.0
 10
-468.3427310764205
 20
126.6542020559129
 30
0.0
 10
-524.4663299413555
 20
123.2221111783431
 30
-0.0000000000001137
 10
-562.0246668327195
 20
137.5773224698537
 30
-0.0000000000001137
 10
-587.3961538540439
 20
141.020431214142
 30
0.0
  0
POLYLINE
  5
24A
330
1F
100
AcDbEntity
  8
Depiece con dogbone
100
AcDb2dPolyline
 66
     1
 10
0.0
 20
0.0
 30
0.0
  0
VERTEX
  5
24B
330
24A
100
AcDbEntity
  8
Depiece con dogbone
100
AcDbVertex
100
AcDb2dVertex
 10
-587.3961538540439
 20
141.020431214142
 30
0.0
  0
VERTEX
  5
24C
330
24A
100
AcDbEntity
  8
Depiece con dogbone
100
AcDbVertex
100
AcDb2dVertex
 10
-587.3961538540439
 20
55.62250132458163
 30
0.0
  0
VERTEX
  5
24D
330
24A
100
AcDbEntity
  8
Depiece con dogbone
100
AcDbVertex
100
AcDb2dVertex
 10
-567.3961538540436
 20
55.62250132458163
 30
0.0
  0
VERTEX
  5
24E
330
24A
100
AcDbEntity
  8
Depiece con dogbone
100
AcDbVertex
100
AcDb2dVertex
 10
-567.3961538540439
 20
118.7254097575079
 30
0.0
  0
SEQEND
  5
24F
330
24A
100
AcDbEntity
  8
Depiece con dogbone
  0
ARC
  5
250
330
1F
100
AcDbEntity
  8
Depiece con dogbone
100
AcDbCircle
 10
565.0980568151874
 20
121.0235067963641
 30
0.0000000000000009
 40
3.25
210
0.0
220
0.0
230
-1.0
100
AcDbArc
 50
315.0000000000007
 51
135.0000000000007
  0
POLYLINE
  5
251
330
1F
100
AcDbEntity
  8
Depiece con dogbone
100
AcDb2dPolyline
 66
     1
 10
0.0
 20
0.0
 30
-0.0000000000000022
  0
VERTEX
  5
252
330
251
100
AcDbEntity
  8
Depiece con dogbone
100
AcDbVertex
100
AcDb2dVertex
 10
-562.799959776331
 20
123.3216038352203
 30
-0.0000000000000022
  0
VERTEX
  5
253
330
251
100
AcDbEntity
  8
Depiece con dogbone
100
AcDbVertex
100
AcDb2dVertex
 10
-556.9923479317565
 20
123.3216038352205
 30
-0.0000000000000022
  0
SEQEND
  5
254
330
251
100
AcDbEntity
  8
Depiece con dogbone
  0
ARC
  5
255
330
1F
100
AcDbEntity
  8
Depiece con dogbone
100
AcDbCircle
 10
554.6942508929003
 20
121.0235067963642
 30
0.0000000000000009
 40
3.25
210
0.0
220
0.0
230
-1.0
100
AcDbArc
 50
44.99999999999965
 51
224.9999999999995
  0
POLYLINE
  5
256
330
1F
100
AcDbEntity
  8
Depiece con dogbone
100
AcDb2dPolyline
 66
     1
 10
0.0
 20
0.0
 30
0.0000000000000004
  0
VERTEX
  5
257
330
256
100
AcDbEntity
  8
Depiece con dogbone
100
AcDbVertex
100
AcDb2dVertex
 10
-552.3961538540441
 20
118.7254097575079
 30
0.0000000000000004
  0
VERTEX
  5
258
330
256
100
AcDbEntity
  8
Depiece con dogbone
100
AcDbVertex
100
AcDb2dVertex
 10
-552.3961538540436
 20
55.62250132458163
 30
0.0000000000000004
  0
VERTEX
  5
259
330
256
100
AcDbEntity
  8
Depiece con dogbone
100
AcDbVertex
100
AcDb2dVertex
 10
-498.3961538540437
 20
55.62250132458163
 30
0.0000000000000004
  0
VERTEX
  5
25A
330
256
100
AcDbEntity
  8
Depiece con dogbone
100
AcDbVertex
100
AcDb2dVertex
 10
-498.3961538540437
 20
110.7807782214867
 30
0.0000000000000004
  0
SEQEND
  5
25B
330
256
100
AcDbEntity
  8
Depiece con dogbone
  0
ARC
  5
25C
330
1F
100
AcDbEntity
  8
Depiece con dogbone
100
AcDbCircle
 10
496.0980568151872
 20
113.0788752603429
 30
0.0000000000000009
 40
3.25
210
0.0
220
0.0
230
-1.0
100
AcDbArc
 50
315.0
 51
135.0
  0
POLYLINE
  5
25D
330
1F
100
AcDbEntity
  8
Depiece con dogbone
100
AcDb2dPolyline
 66
     1
 10
0.0
 20
0.0
 30
-0.0000000000000022
  0
VERTEX
  5
25E
330
25D
100
AcDbEntity
  8
Depiece con dogbone
100
AcDbVertex
100
AcDb2dVertex
 10
-493.7999597763308
 20
115.3769722991991
 30
-0.0000000000000022
  0
VERTEX
  5
25F
330
25D
100
AcDbEntity
  8
Depiece con dogbone
100
AcDbVertex
100
AcDb2dVertex
 10
-487.9923479317561
 20
115.3769722991993
 30
-0.0000000000000022
  0
SEQEND
  5
260
330
25D
100
AcDbEntity
  8
Depiece con dogbone
  0
ARC
  5
261
330
1F
100
AcDbEntity
  8
Depiece con dogbone
100
AcDbCircle
 10
485.6942508928999
 20
113.078875260343
 30
0.0000000000000009
 40
3.25
210
0.0
220
0.0
230
-1.0
100
AcDbArc
 50
45.00000000000036
 51
225.0000000000002
  0
POLYLINE
  5
262
330
1F
100
AcDbEntity
  8
Depiece con dogbone
100
AcDb2dPolyline
 66
     1
 10
0.0
 20
0.0
 30
0.0000000000000004
  0
VERTEX
  5
263
330
262
100
AcDbEntity
  8
Depiece con dogbone
100
AcDbVertex
100
AcDb2dVertex
 10
-483.3961538540437
 20
110.7807782214867
 30
0.0000000000000004
  0
VERTEX
  5
264
330
262
100
AcDbEntity
  8
Depiece con dogbone
100
AcDbVertex
100
AcDb2dVertex
 10
-483.3961538540437
 20
55.62250132458163
 30
0.0000000000000004
  0
VERTEX
  5
265
330
262
100
AcDbEntity
  8
Depiece con dogbone
100
AcDbVertex
100
AcDb2dVertex
 10
-479.5067747944027
 20
55.62250132458163
 30
0.0000000000000004
  0
VERTEX
  5
266
330
262
100
AcDbEntity
  8
Depiece con dogbone
100
AcDbVertex
100
AcDb2dVertex
 10
-429.3961538540446
 20
55.62250132458163
 30
0.0000000000000004
  0
VERTEX
  5
267
330
262
100
AcDbEntity
  8
Depiece con dogbone
100
AcDbVertex
100
AcDb2dVertex
 10
-429.3961538540448
 20
137.7261334846185
 30
0.0000000000000004
  0
SEQEND
  5
268
330
262
100
AcDbEntity
  8
Depiece con dogbone
  0
ARC
  5
269
330
1F
100
AcDbEntity
  8
Depiece con dogbone
100
AcDbCircle
 10
427.0980568151884
 20
140.0242305234748
 30
0.0000000000000009
 40
3.25
210
0.0
220
0.0
230
-1.0
100
AcDbArc
 50
314.9999999999997
 51
134.9999999999996
  0
POLYLINE
  5
26A
330
1F
100
AcDbEntity
  8
Depiece con dogbone
100
AcDb2dPolyline
 66
     1
 10
0.0
 20
0.0
 30
-0.0000000000000022
  0
VERTEX
  5
26B
330
26A
100
AcDbEntity
  8
Depiece con dogbone
100
AcDbVertex
100
AcDb2dVertex
 10
-424.7999597763319
 20
142.322327562331
 30
-0.0000000000000022
  0
VERTEX
  5
26C
330
26A
100
AcDbEntity
  8
Depiece con dogbone
100
AcDbVertex
100
AcDb2dVertex
 10
-418.992347931757
 20
142.3223275623312
 30
-0.0000000000000022
  0
SEQEND
  5
26D
330
26A
100
AcDbEntity
  8
Depiece con dogbone
  0
ARC
  5
26E
330
1F
100
AcDbEntity
  8
Depiece con dogbone
100
AcDbCircle
 10
416.6942508929008
 20
140.0242305234749
 30
0.0000000000000009
 40
3.25
210
0.0
220
0.0
230
-1.0
100
AcDbArc
 50
45.00000000000036
 51
225.0
  0
POLYLINE
  5
26F
330
1F
100
AcDbEntity
  8
Depiece con dogbone
100
AcDb2dPolyline
 66
     1
 10
0.0
 20
0.0
 30
0.0000000000000004
  0
VERTEX
  5
270
330
26F
100
AcDbEntity
  8
Depiece con dogbone
100
AcDbVertex
100
AcDb2dVertex
 10
-414.3961538540446
 20
137.7261334846185
 30
0.0000000000000004
  0
VERTEX
  5
271
330
26F
100
AcDbEntity
  8
Depiece con dogbone
100
AcDbVertex
100
AcDb2dVertex
 10
-414.3961538540446
 20
55.62250132458163
 30
0.0000000000000004
  0
VERTEX
  5
272
330
26F
100
AcDbEntity
  8
Depiece con dogbone
100
AcDbVertex
100
AcDb2dVertex
 10
-360.3961538540437
 20
55.62250132458152
 30
0.0000000000000004
  0
VERTEX
  5
273
330
26F
100
AcDbEntity
  8
Depiece con dogbone
100
AcDbVertex
100
AcDb2dVertex
 10
-360.3961538540439
 20
175.8428222867134
 30
0.0000000000000004
  0
SEQEND
  5
274
330
26F
100
AcDbEntity
  8
Depiece con dogbone
  0
ARC
  5
275
330
1F
100
AcDbEntity
  8
Depiece con dogbone
100
AcDbCircle
 10
358.0980568151875
 20
178.1409193255696
 30
0.0000000000000009
 40
3.25
210
0.0
220
0.0
230
-1.0
100
AcDbArc
 50
314.9999999999997
 51
134.9999999999996
  0
POLYLINE
  5
276
330
1F
100
AcDbEntity
  8
Depiece con dogbone
100
AcDb2dPolyline
 66
     1
 10
0.0
 20
0.0
 30
-0.0000000000000022
  0
VERTEX
  5
277
330
276
100
AcDbEntity
  8
Depiece con dogbone
100
AcDbVertex
100
AcDb2dVertex
 10
-355.799959776331
 20
180.4390163644258
 30
-0.0000000000000022
  0
VERTEX
  5
278
330
276
100
AcDbEntity
  8
Depiece con dogbone
100
AcDbVertex
100
AcDb2dVertex
 10
-349.9923479317561
 20
180.439016364426
 30
-0.0000000000000022
  0
SEQEND
  5
279
330
276
100
AcDbEntity
  8
Depiece con dogbone
  0
ARC
  5
27A
330
1F
100
AcDbEntity
  8
Depiece con dogbone
100
AcDbCircle
 10
347.6942508928999
 20
178.1409193255697
 30
0.0000000000000009
 40
3.25
210
0.0
220
0.0
230
-1.0
100
AcDbArc
 50
45.00000000000036
 51
225.0
  0
POLYLINE
  5
27B
330
1F
100
AcDbEntity
  8
Depiece con dogbone
100
AcDb2dPolyline
 66
     1
 10
0.0
 20
0.0
 30
0.0000000000000004
  0
VERTEX
  5
27C
330
27B
100
AcDbEntity
  8
Depiece con dogbone
100
AcDbVertex
100
AcDb2dVertex
 10
-345.3961538540437
 20
175.8428222867134
 30
0.0000000000000004
  0
VERTEX
  5
27D
330
27B
100
AcDbEntity
  8
Depiece con dogbone
100
AcDbVertex
100
AcDb2dVertex
 10
-345.3961538540437
 20
55.62250132458152
 30
0.0000000000000004
  0
VERTEX
  5
27E
330
27B
100
AcDbEntity
  8
Depiece con dogbone
100
AcDbVertex
100
AcDb2dVertex
 10
-291.396153854043
 20
55.62250132458152
 30
0.0000000000000004
  0
VERTEX
  5
27F
330
27B
100
AcDbEntity
  8
Depiece con dogbone
100
AcDbVertex
100
AcDb2dVertex
 10
-291.3961538540428
 20
129.7960180515011
 30
0.0000000000000004
  0
SEQEND
  5
280
330
27B
100
AcDbEntity
  8
Depiece con dogbone
  0
ARC
  5
281
330
1F
100
AcDbEntity
  8
Depiece con dogbone
100
AcDbCircle
 10
289.0980568151863
 20
132.0941150903573
 30
0.0000000000000009
 40
3.25
210
0.0
220
0.0
230
-1.0
100
AcDbArc
 50
314.9999999999997
 51
134.9999999999996
  0
POLYLINE
  5
282
330
1F
100
AcDbEntity
  8
Depiece con dogbone
100
AcDb2dPolyline
 66
     1
 10
0.0
 20
0.0
 30
-0.0000000000000022
  0
VERTEX
  5
283
330
282
100
AcDbEntity
  8
Depiece con dogbone
100
AcDbVertex
100
AcDb2dVertex
 10
-286.7999597763299
 20
134.3922121292136
 30
-0.0000000000000022
  0
VERTEX
  5
284
330
282
100
AcDbEntity
  8
Depiece con dogbone
100
AcDbVertex
100
AcDb2dVertex
 10
-280.9923479317557
 20
134.3922121292138
 30
-0.0000000000000022
  0
SEQEND
  5
285
330
282
100
AcDbEntity
  8
Depiece con dogbone
  0
ARC
  5
286
330
1F
100
AcDbEntity
  8
Depiece con dogbone
100
AcDbCircle
 10
278.6942508928994
 20
132.0941150903575
 30
0.0000000000000009
 40
3.25
210
0.0
220
0.0
230
-1.0
100
AcDbArc
 50
45.00000000000036
 51
225.0
  0
POLYLINE
  5
287
330
1F
100
AcDbEntity
  8
Depiece con dogbone
100
AcDb2dPolyline
 66
     1
 10
0.0
 20
0.0
 30
0.0000000000000004
  0
VERTEX
  5
288
330
287
100
AcDbEntity
  8
Depiece con dogbone
100
AcDbVertex
100
AcDb2dVertex
 10
-276.3961538540432
 20
129.7960180515011
 30
0.0000000000000004
  0
VERTEX
  5
289
330
287
100
AcDbEntity
  8
Depiece con dogbone
100
AcDbVertex
100
AcDb2dVertex
 10
-276.396153854043
 20
55.62250132458152
 30
0.0000000000000004
  0
VERTEX
  5
28A
330
287
100
AcDbEntity
  8
Depiece con dogbone
100
AcDbVertex
100
AcDb2dVertex
 10
-222.3961538540437
 20
55.62250132458152
 30
0.0000000000000004
  0
VERTEX
  5
28B
330
287
100
AcDbEntity
  8
Depiece con dogbone
100
AcDbVertex
100
AcDb2dVertex
 10
-222.3961538540437
 20
121.5524747502724
 30
0.0000000000000004
  0
SEQEND
  5
28C
330
287
100
AcDbEntity
  8
Depiece con dogbone
  0
ARC
  5
28D
330
1F
100
AcDbEntity
  8
Depiece con dogbone
100
AcDbCircle
 10
220.0980568151872
 20
123.8505717891286
 30
0.0000000000000009
 40
3.25
210
0.0
220
0.0
230
-1.0
100
AcDbArc
 50
315.0
 51
135.0
  0
POLYLINE
  5
28E
330
1F
100
AcDbEntity
  8
Depiece con dogbone
100
AcDb2dPolyline
 66
     1
 10
0.0
 20
0.0
 30
0.0
  0
VERTEX
  5
28F
330
28E
100
AcDbEntity
  8
Depiece con dogbone
100
AcDbVertex
100
AcDb2dVertex
 10
-217.7999597764606
 20
126.1486688281149
 30
0.0
  0
VERTEX
  5
290
330
28E
100
AcDbEntity
  8
Depiece con dogbone
100
AcDbVertex
100
AcDb2dVertex
 10
-211.9923479317561
 20
126.1486688284093
 30
0.0
  0
SEQEND
  5
291
330
28E
100
AcDbEntity
  8
Depiece con dogbone
  0
ARC
  5
292
330
1F
100
AcDbEntity
  8
Depiece con dogbone
100
AcDbCircle
 10
209.6942508928999
 20
123.850571789553
 30
0.0000000000000009
 40
3.25
210
0.0
220
0.0
230
-1.0
100
AcDbArc
 50
45.00000000000071
 51
225.0000000000002
  0
POLYLINE
  5
293
330
1F
100
AcDbEntity
  8
Depiece con dogbone
100
AcDb2dPolyline
 66
     1
 10
0.0
 20
0.0
 30
0.0000000000000004
  0
VERTEX
  5
294
330
293
100
AcDbEntity
  8
Depiece con dogbone
100
AcDbVertex
100
AcDb2dVertex
 10
-207.3961538540437
 20
121.5524747506966
 30
0.0000000000000004
  0
VERTEX
  5
295
330
293
100
AcDbEntity
  8
Depiece con dogbone
100
AcDbVertex
100
AcDb2dVertex
 10
-207.3961538540437
 20
55.62250132458152
 30
0.0000000000000004
  0
VERTEX
  5
296
330
293
100
AcDbEntity
  8
Depiece con dogbone
100
AcDbVertex
100
AcDb2dVertex
 10
-187.3961538540439
 20
55.62250132458163
 30
0.0000000000000004
  0
VERTEX
  5
297
330
293
100
AcDbEntity
  8
Depiece con dogbone
100
AcDbVertex
100
AcDb2dVertex
 10
-187.3961538540439
 20
142.9336065032873
 30
0.0000000000000004
  0
SEQEND
  5
298
330
293
100
AcDbEntity
  8
Depiece con dogbone
  0
ENDSEC
  0
SECTION
  2
OBJECTS
  0
DICTIONARY
  5
C
330
0
100
AcDbDictionary
281
     1
  3
ACAD_DETAILVIEWSTYLE
350
2D4
  3
ACAD_GROUP
350
D
  3
ACAD_LAYOUT
350
1A
  3
ACAD_MATERIAL
350
43
  3
ACAD_MLEADERSTYLE
350
5B
  3
ACAD_MLINESTYLE
350
17
  3
ACAD_PLOTSETTINGS
350
19
  3
ACAD_PLOTSTYLENAME
350
E
  3
ACAD_SCALELIST
350
47
  3
ACAD_SECTIONVIEWSTYLE
350
2D5
  3
ACAD_TABLESTYLE
350
59
  3
ACAD_VISUALSTYLE
350
2A
  3
AcDbVariableDictionary
350
299
  3
ACDB_RECOMPOSE_DATA
350
2D1
  0
SUN
  5
5D
330
29
100
AcDbSun
 90
        1
290
     0
 63
     7
421
 16777215
 40
1.0
291
     1
 91
  2455826
 92
 54000000
292
     0
 70
     2
 71
   256
280
     1
  0
DICTIONARY
  5
2D4
102
{ACAD_REACTORS
330
C
102
}
330
C
100
AcDbDictionary
281
     1
  0
DICTIONARY
  5
D
102
{ACAD_REACTORS
330
C
102
}
330
C
100
AcDbDictionary
281
     1
  0
DICTIONARY
  5
1A
102
{ACAD_REACTORS
330
C
102
}
330
C
100
AcDbDictionary
281
     1
  3
Layout1
350
1E
  3
Layout2
350
26
  3
Model
350
22
  0
DICTIONARY
  5
43
102
{ACAD_REACTORS
330
C
102
}
330
C
100
AcDbDictionary
281
     1
  3
ByBlock
350
45
  3
ByLayer
350
44
  3
Global
350
46
  0
DICTIONARY
  5
5B
102
{ACAD_REACTORS
330
C
102
}
330
C
100
AcDbDictionary
281
     1
  3
Standard
350
5C
  0
DICTIONARY
  5
17
102
{ACAD_REACTORS
330
C
102
}
330
C
100
AcDbDictionary
281
     1
  3
Standard
350
18
  0
DICTIONARY
  5
19
102
{ACAD_REACTORS
330
C
102
}
330
C
100
AcDbDictionary
281
     1
  0
ACDBDICTIONARYWDFLT
  5
E
102
{ACAD_REACTORS
330
C
102
}
330
C
100
AcDbDictionary
281
     1
  3
Normal
350
F
100
AcDbDictionaryWithDefault
340
F
  0
DICTIONARY
  5
47
102
{ACAD_REACTORS
330
C
102
}
330
C
100
AcDbDictionary
281
     1
  3
A0
350
48
  3
A1
350
49
  3
A2
350
4A
  3
A3
350
4B
  3
A4
350
4C
  3
A5
350
4D
  3
A6
350
4E
  3
A7
350
4F
  3
A8
350
50
  3
A9
350
51
  3
B1
350
52
  3
B2
350
53
  3
B3
350
54
  3
B4
350
55
  3
B5
350
56
  3
B6
350
57
  3
B7
350
58
  0
DICTIONARY
  5
2D5
102
{ACAD_REACTORS
330
C
102
}
330
C
100
AcDbDictionary
281
     1
  0
DICTIONARY
  5
59
102
{ACAD_REACTORS
330
C
102
}
330
C
100
AcDbDictionary
281
     1
  3
Standard
350
5A
  0
DICTIONARY
  5
2A
102
{ACAD_REACTORS
330
C
102
}
330
C
100
AcDbDictionary
281
     1
  3
2dWireframe
350
2F
  3
Basic
350
32
  3
Brighten
350
36
  3
ColorChange
350
3A
  3
Conceptual
350
34
  3
Dim
350
35
  3
EdgeColorOff
350
3D
  3
Facepattern
350
39
  3
Flat
350
2B
  3
FlatWithEdges
350
2C
  3
Gouraud
350
2D
  3
GouraudWithEdges
350
2E
  3
Hidden
350
31
  3
JitterOff
350
3B
  3
Linepattern
350
38
  3
OverhangOff
350
3C
  3
Realistic
350
33
  3
Shaded
350
42
  3
Shaded with edges
350
41
  3
Shades of Gray
350
3E
  3
Sketchy
350
3F
  3
Thicken
350
37
  3
Wireframe
350
30
  3
X-Ray
350
40
  0
DICTIONARY
  5
299
102
{ACAD_REACTORS
330
C
102
}
330
C
100
AcDbDictionary
281
     1
  3
CANNOSCALE
350
29A
  3
CMLEADERSTYLE
350
2D3
  3
CTABLESTYLE
350
2D2
  3
XCLIPFRAME
350
29B
  0
XRECORD
  5
2D1
102
{ACAD_REACTORS
330
C
102
}
330
C
100
AcDbXrecord
280
     1
 90
        1
330
5A
  0
LAYOUT
  5
1E
102
{ACAD_REACTORS
330
1A
102
}
330
1A
100
AcDbPlotSettings
  1

  2
none_device
  4

  6

 40
0.0
 41
0.0
 42
0.0
 43
0.0
 44
0.0
 45
0.0
 46
0.0
 47
0.0
 48
0.0
 49
0.0
140
0.0
141
0.0
142
1.0
143
1.0
 70
   688
 72
     0
 73
     0
 74
     5
  7

 75
    16
 76
     0
 77
     2
 78
   300
147
1.0
148
0.0
149
0.0
100
AcDbLayout
  1
Layout1
 70
     1
 71
     1
 10
0.0
 20
0.0
 11
12.0
 21
9.0
 12
0.0
 22
0.0
 32
0.0
 14
1.000000000000000E+20
 24
1.000000000000000E+20
 34
1.000000000000000E+20
 15
-1.000000000000000E+20
 25
-1.000000000000000E+20
 35
-1.000000000000000E+20
146
0.0
 13
0.0
 23
0.0
 33
0.0
 16
1.0
 26
0.0
 36
0.0
 17
0.0
 27
1.0
 37
0.0
 76
     0
330
1B
  0
LAYOUT
  5
26
102
{ACAD_REACTORS
330
1A
102
}
330
1A
100
AcDbPlotSettings
  1

  2
none_device
  4

  6

 40
0.0
 41
0.0
 42
0.0
 43
0.0
 44
0.0
 45
0.0
 46
0.0
 47
0.0
 48
0.0
 49
0.0
140
0.0
141
0.0
142
1.0
143
1.0
 70
   688
 72
     0
 73
     0
 74
     5
  7

 75
    16
 76
     0
 77
     2
 78
   300
147
1.0
148
0.0
149
0.0
100
AcDbLayout
  1
Layout2
 70
     1
 71
     2
 10
0.0
 20
0.0
 11
0.0
 21
0.0
 12
0.0
 22
0.0
 32
0.0
 14
0.0
 24
0.0
 34
0.0
 15
0.0
 25
0.0
 35
0.0
146
0.0
 13
0.0
 23
0.0
 33
0.0
 16
1.0
 26
0.0
 36
0.0
 17
0.0
 27
1.0
 37
0.0
 76
     0
330
23
  0
LAYOUT
  5
22
102
{ACAD_REACTORS
330
1A
102
}
330
1A
100
AcDbPlotSettings
  1

  2
none_device
  4
Letter_(8.50_x_11.00_Inches)
  6

 40
6.35
 41
6.35
 42
6.35000508
 43
6.35000508
 44
215.9
 45
279.4
 46
0.0
 47
0.0
 48
0.0
 49
0.0
140
0.0
141
0.0
142
1.0
143
1.0
 70
  1712
 72
     0
 73
     0
 74
     0
  7

 75
     0
 76
     0
 77
     2
 78
   300
147
1.0
148
0.0
149
0.0
100
AcDbLayout
  1
Model
 70
     1
 71
     0
 10
0.0
 20
0.0
 11
12.0
 21
9.0
 12
0.0
 22
0.0
 32
0.0
 14
-587.3961538540439
 24
-498.7044460644591
 34
-0.0000000000006111
 15
588.5108337358984
 25
499.8412833480077
 35
0.0000000000009663
146
0.0
 13
0.0
 23
0.0
 33
0.0
 16
1.0
 26
0.0
 36
0.0
 17
0.0
 27
1.0
 37
0.0
 76
     0
330
1F
331
29
  0
MATERIAL
  5
45
102
{ACAD_REACTORS
330
43
102
}
330
43
100
AcDbMaterial
  1
ByBlock
 72
     1
 94
      127
  0
MATERIAL
  5
44
102
{ACAD_REACTORS
330
43
102
}
330
43
100
AcDbMaterial
  1
ByLayer
 72
     1
 94
      127
  0
MATERIAL
  5
46
102
{ACAD_REACTORS
330
43
102
}
330
43
100
AcDbMaterial
  1
Global
 72
     1
 94
      127
  0
MLEADERSTYLE
  5
5C
102
{ACAD_REACTORS
330
5B
102
}
102
{ACAD_XDICTIONARY
360
2CF
102
}
330
5B
100
AcDbMLeaderStyle
170
     2
171
     1
172
     0
 90
        2
 40
0.0
 41
0.0
173
     1
 91
-1056964608
340
14
 92
       -2
290
     1
 42
0.09
291
     1
 43
0.36
  3
Standard
341
0
 44
0.18
300

342
11
174
     1
178
     6
175
     1
176
     0
 93
-1056964608
 45
0.18
292
     0
297
     0
 46
0.18
343
0
 94
-1056964608
 47
1.0
 49
1.0
140
1.0
293
     1
141
0.0
294
     1
177
     0
142
1.0
295
     0
296
     0
143
0.125
1001
ACAD_MLEADERVER
1070
     2
  0
MLINESTYLE
  5
18
102
{ACAD_REACTORS
330
17
102
}
330
17
100
AcDbMlineStyle
  2
Standard
 70
     0
  3

 62
   256
 51
90.0
 52
90.0
 71
     2
 49
0.5
 62
   256
  6
BYLAYER
 49
-0.5
 62
   256
  6
BYLAYER
  0
ACDBPLACEHOLDER
  5
F
102
{ACAD_REACTORS
330
E
102
}
330
E
  0
SCALE
  5
48
102
{ACAD_REACTORS
330
47
102
}
330
47
100
AcDbScale
 70
     0
300
1:1
140
1.0
141
1.0
290
     1
  0
SCALE
  5
49
102
{ACAD_REACTORS
330
47
102
}
330
47
100
AcDbScale
 70
     0
300
1/128" = 1'-0"
140
0.0078125
141
12.0
290
     0
  0
SCALE
  5
4A
102
{ACAD_REACTORS
330
47
102
}
330
47
100
AcDbScale
 70
     0
300
1/64" = 1'-0"
140
0.015625
141
12.0
290
     0
  0
SCALE
  5
4B
102
{ACAD_REACTORS
330
47
102
}
330
47
100
AcDbScale
 70
     0
300
1/32" = 1'-0"
140
0.03125
141
12.0
290
     0
  0
SCALE
  5
4C
102
{ACAD_REACTORS
330
47
102
}
330
47
100
AcDbScale
 70
     0
300
1/16" = 1'-0"
140
0.0625
141
12.0
290
     0
  0
SCALE
  5
4D
102
{ACAD_REACTORS
330
47
102
}
330
47
100
AcDbScale
 70
     0
300
3/32" = 1'-0"
140
0.09375
141
12.0
290
     0
  0
SCALE
  5
4E
102
{ACAD_REACTORS
330
47
102
}
330
47
100
AcDbScale
 70
     0
300
1/8" = 1'-0"
140
0.125
141
12.0
290
     0
  0
SCALE
  5
4F
102
{ACAD_REACTORS
330
47
102
}
330
47
100
AcDbScale
 70
     0
300
3/16" = 1'-0"
140
0.1875
141
12.0
290
     0
  0
SCALE
  5
50
102
{ACAD_REACTORS
330
47
102
}
330
47
100
AcDbScale
 70
     0
300
1/4" = 1'-0"
140
0.25
141
12.0
290
     0
  0
SCALE
  5
51
102
{ACAD_REACTORS
330
47
102
}
330
47
100
AcDbScale
 70
     0
300
3/8" = 1'-0"
140
0.375
141
12.0
290
     0
  0
SCALE
  5
52
102
{ACAD_REACTORS
330
47
102
}
330
47
100
AcDbScale
 70
     0
300
1/2" = 1'-0"
140
0.5
141
12.0
290
     0
  0
SCALE
  5
53
102
{ACAD_REACTORS
330
47
102
}
330
47
100
AcDbScale
 70
     0
300
3/4" = 1'-0"
140
0.75
141
12.0
290
     0
  0
SCALE
  5
54
102
{ACAD_REACTORS
330
47
102
}
330
47
100
AcDbScale
 70
     0
300
1" = 1'-0"
140
1.0
141
12.0
290
     0
  0
SCALE
  5
55
102
{ACAD_REACTORS
330
47
102
}
330
47
100
AcDbScale
 70
     0
300
1-1/2" = 1'-0"
140
1.5
141
12.0
290
     0
  0
SCALE
  5
56
102
{ACAD_REACTORS
330
47
102
}
330
47
100
AcDbScale
 70
     0
300
3" = 1'-0"
140
3.0
141
12.0
290
     0
  0
SCALE
  5
57
102
{ACAD_REACTORS
330
47
102
}
330
47
100
AcDbScale
 70
     0
300
6" = 1'-0"
140
6.0
141
12.0
290
     0
  0
SCALE
  5
58
102
{ACAD_REACTORS
330
47
102
}
330
47
100
AcDbScale
 70
     0
300
1'-0" = 1'-0"
140
12.0
141
12.0
290
     0
  0
TABLESTYLE
  5
5A
102
{ACAD_REACTORS
330
59
102
}
102
{ACAD_XDICTIONARY
360
2CC
102
}
330
59
100
AcDbTableStyle
  3
Standard
 70
     0
 71
     0
 40
0.06
 41
0.06
280
     0
281
     0
  7
Standard
140
0.18
170
     2
 62
     0
 63
   257
283
     0
 90
        4
 91
        0
  1

274
    -2
284
     1
 64
     0
275
    -2
285
     1
 65
     0
276
    -2
286
     1
 66
     0
277
    -2
287
     1
 67
     0
278
    -2
288
     1
 68
     0
279
    -2
289
     1
 69
     0
  7
Standard
140
0.25
170
     5
 62
     0
 63
   257
283
     0
 90
        4
 91
        0
  1

274
    -2
284
     1
 64
     0
275
    -2
285
     1
 65
     0
276
    -2
286
     1
 66
     0
277
    -2
287
     1
 67
     0
278
    -2
288
     1
 68
     0
279
    -2
289
     1
 69
     0
  7
Standard
140
0.18
170
     5
 62
     0
 63
   257
283
     0
 90
        4
 91
        0
  1

274
    -2
284
     1
 64
     0
275
    -2
285
     1
 65
     0
276
    -2
286
     1
 66
     0
277
    -2
287
     1
 67
     0
278
    -2
288
     1
 68
     0
279
    -2
289
     1
 69
     0
  0
VISUALSTYLE
  5
2F
102
{ACAD_REACTORS
330
2A
102
}
102
{ACAD_XDICTIONARY
360
2A4
102
}
330
2A
100
AcDbVisualStyle
  2
2dWireframe
 70
     4
 71
     0
 72
     2
 73
     0
 90
        0
 40
0.6
 41
30.0
 62
     5
 63
     7
421
 16777215
 74
     1
 91
        4
 64
     7
 65
   257
 75
     1
175
     1
 42
1.0
 92
        0
 66
   257
 43
1.0
 76
     1
 77
     6
 78
     2
 67
     7
 79
     5
170
     0
171
     0
290
     0
174
     0
 93
        1
 44
0.0
173
     0
291
     0
 45
0.0
  0
VISUALSTYLE
  5
32
102
{ACAD_REACTORS
330
2A
102
}
102
{ACAD_XDICTIONARY
360
2AA
102
}
330
2A
100
AcDbVisualStyle
  2
Basic
 70
     7
 71
     1
 72
     0
 73
     1
 90
        0
 40
0.6
 41
30.0
 62
     5
 63
     7
421
 16777215
 74
     0
 91
        4
 64
     7
 65
   257
 75
     1
175
     1
 42
1.0
 92
        8
 66
     7
 43
1.0
 76
     1
 77
     6
 78
     2
 67
     7
 79
     5
170
     0
171
     0
290
     0
174
     0
 93
        1
 44
0.0
173
     0
291
     1
 45
0.0
  0
VISUALSTYLE
  5
36
102
{ACAD_REACTORS
330
2A
102
}
102
{ACAD_XDICTIONARY
360
2B2
102
}
330
2A
100
AcDbVisualStyle
  2
Brighten
 70
    12
 71
     2
 72
     2
 73
     0
 90
        0
 40
0.6
 41
30.0
 62
     5
 63
     7
421
 16777215
 74
     1
 91
        4
 64
     7
 65
   257
 75
     1
175
     1
 42
1.0
 92
        8
 66
     7
 43
1.0
 76
     1
 77
     6
 78
     2
 67
     7
 79
     5
170
     0
171
     0
290
     0
174
     0
 93
        1
 44
50.0
173
     0
291
     1
 45
0.0
  0
VISUALSTYLE
  5
3A
102
{ACAD_REACTORS
330
2A
102
}
102
{ACAD_XDICTIONARY
360
2BA
102
}
330
2A
100
AcDbVisualStyle
  2
ColorChange
 70
    16
 71
     2
 72
     2
 73
     3
 90
        0
 40
0.6
 41
30.0
 62
     5
 63
     8
421
  8421504
 74
     1
 91
        4
 64
     7
 65
   257
 75
     1
175
     1
 42
1.0
 92
        8
 66
     8
424
  8421504
 43
1.0
 76
     1
 77
     6
 78
     2
 67
     7
 79
     5
170
     0
171
     0
290
     0
174
     0
 93
        1
 44
0.0
173
     0
291
     1
 45
0.0
  0
VISUALSTYLE
  5
34
102
{ACAD_REACTORS
330
2A
102
}
102
{ACAD_XDICTIONARY
360
2AE
102
}
330
2A
100
AcDbVisualStyle
  2
Conceptual
 70
     9
 71
     3
 72
     2
 73
     0
 90
        0
 40
0.6
 41
30.0
 62
     5
 63
     7
421
 16777215
 74
     2
 91
        2
 64
     7
 65
   257
 75
     1
175
     1
 42
179.0
 92
        8
 66
     7
 43
1.0
 76
     1
 77
     6
 78
     2
 67
     7
 79
     3
170
     0
171
     0
290
     0
174
     0
 93
        1
 44
0.0
173
     0
291
     0
 45
0.0
  0
VISUALSTYLE
  5
35
102
{ACAD_REACTORS
330
2A
102
}
102
{ACAD_XDICTIONARY
360
2B0
102
}
330
2A
100
AcDbVisualStyle
  2
Dim
 70
    11
 71
     2
 72
     2
 73
     0
 90
        0
 40
0.6
 41
30.0
 62
     5
 63
     7
421
 16777215
 74
     1
 91
        4
 64
     7
 65
   257
 75
     1
175
     1
 42
1.0
 92
        8
 66
     7
 43
1.0
 76
     1
 77
     6
 78
     2
 67
     7
 79
     5
170
     0
171
     0
290
     0
174
     0
 93
        1
 44
-50.0
173
     0
291
     1
 45
0.0
  0
VISUALSTYLE
  5
3D
102
{ACAD_REACTORS
330
2A
102
}
102
{ACAD_XDICTIONARY
360
2C0
102
}
330
2A
100
AcDbVisualStyle
  2
EdgeColorOff
 70
    22
 71
     2
 72
     2
 73
     0
 90
        0
 40
0.6
 41
30.0
 62
     5
 63
     7
421
 16777215
 74
     1
 91
        4
 64
     7
 65
   257
 75
     1
175
     1
 42
1.0
 92
        8
 66
     7
 43
1.0
 76
     1
 77
     6
 78
     2
 67
     7
 79
     5
170
     0
171
     0
290
     0
174
     0
 93
        1
 44
0.0
173
     0
291
     1
 45
0.0
  0
VISUALSTYLE
  5
39
102
{ACAD_REACTORS
330
2A
102
}
102
{ACAD_XDICTIONARY
360
2B8
102
}
330
2A
100
AcDbVisualStyle
  2
Facepattern
 70
    15
 71
     2
 72
     2
 73
     0
 90
        0
 40
0.6
 41
30.0
 62
     5
 63
     7
421
 16777215
 74
     1
 91
        4
 64
     7
 65
   257
 75
     1
175
     1
 42
1.0
 92
        8
 66
     7
 43
1.0
 76
     1
 77
     6
 78
     2
 67
     7
 79
     5
170
     0
171
     0
290
     0
174
     0
 93
        1
 44
0.0
173
     0
291
     1
 45
0.0
  0
VISUALSTYLE
  5
2B
102
{ACAD_REACTORS
330
2A
102
}
102
{ACAD_XDICTIONARY
360
29C
102
}
330
2A
100
AcDbVisualStyle
  2
Flat
 70
     0
 71
     2
 72
     1
 73
     1
 90
        2
 40
0.6
 41
30.0
 62
     5
 63
     7
421
 16777215
 74
     0
 91
        0
 64
     7
 65
   257
 75
     1
175
     1
 42
1.0
 92
        8
 66
     7
 43
1.0
 76
     1
 77
     6
 78
     2
 67
     7
 79
     5
170
     0
171
     0
290
     0
174
     0
 93
       13
 44
0.0
173
     0
291
     1
 45
0.0
  0
VISUALSTYLE
  5
2C
102
{ACAD_REACTORS
330
2A
102
}
102
{ACAD_XDICTIONARY
360
29E
102
}
330
2A
100
AcDbVisualStyle
  2
FlatWithEdges
 70
     1
 71
     2
 72
     1
 73
     1
 90
        2
 40
0.6
 41
30.0
 62
     5
 63
     7
421
 16777215
 74
     1
 91
        0
 64
     7
 65
   257
 75
     1
175
     1
 42
1.0
 92
        0
 66
   257
 43
1.0
 76
     1
 77
     6
 78
     2
 67
     7
 79
     5
170
     0
171
     0
290
     0
174
     0
 93
       13
 44
0.0
173
     0
291
     1
 45
0.0
  0
VISUALSTYLE
  5
2D
102
{ACAD_REACTORS
330
2A
102
}
102
{ACAD_XDICTIONARY
360
2A0
102
}
330
2A
100
AcDbVisualStyle
  2
Gouraud
 70
     2
 71
     2
 72
     2
 73
     1
 90
        2
 40
0.6
 41
30.0
 62
     5
 63
     7
421
 16777215
 74
     0
 91
        0
 64
     7
 65
   257
 75
     1
175
     1
 42
1.0
 92
        0
 66
     7
 43
1.0
 76
     1
 77
     6
 78
     2
 67
     7
 79
     5
170
     0
171
     0
290
     0
174
     0
 93
       13
 44
0.0
173
     0
291
     1
 45
0.0
  0
VISUALSTYLE
  5
2E
102
{ACAD_REACTORS
330
2A
102
}
102
{ACAD_XDICTIONARY
360
2A2
102
}
330
2A
100
AcDbVisualStyle
  2
GouraudWithEdges
 70
     3
 71
     2
 72
     2
 73
     1
 90
        2
 40
0.6
 41
30.0
 62
     5
 63
     7
421
 16777215
 74
     1
 91
        0
 64
     7
 65
   257
 75
     1
175
     1
 42
1.0
 92
        0
 66
   257
 43
1.0
 76
     1
 77
     6
 78
     2
 67
     7
 79
     5
170
     0
171
     0
290
     0
174
     0
 93
       13
 44
0.0
173
     0
291
     1
 45
0.0
  0
VISUALSTYLE
  5
31
102
{ACAD_REACTORS
330
2A
102
}
102
{ACAD_XDICTIONARY
360
2A8
102
}
330
2A
100
AcDbVisualStyle
  2
Hidden
 70
     6
 71
     1
 72
     2
 73
     2
 90
        0
 40
0.6
 41
30.0
 62
     5
 63
     7
421
 16777215
 74
     2
 91
        2
 64
     7
 65
   257
 75
     2
175
     1
 42
40.0
 92
        0
 66
   257
 43
1.0
 76
     1
 77
     6
 78
     2
 67
     7
 79
     3
170
     0
171
     0
290
     0
174
     0
 93
        1
 44
0.0
173
     0
291
     0
 45
0.0
  0
VISUALSTYLE
  5
3B
102
{ACAD_REACTORS
330
2A
102
}
102
{ACAD_XDICTIONARY
360
2BC
102
}
330
2A
100
AcDbVisualStyle
  2
JitterOff
 70
    20
 71
     2
 72
     2
 73
     0
 90
        0
 40
0.6
 41
30.0
 62
     5
 63
     7
421
 16777215
 74
     1
 91
        4
 64
     7
 65
   257
 75
     1
175
     1
 42
1.0
 92
       10
 66
     7
 43
1.0
 76
     1
 77
     6
 78
     2
 67
     7
 79
     5
170
     0
171
     0
290
     0
174
     0
 93
        1
 44
0.0
173
     0
291
     1
 45
0.0
  0
VISUALSTYLE
  5
38
102
{ACAD_REACTORS
330
2A
102
}
102
{ACAD_XDICTIONARY
360
2B6
102
}
330
2A
100
AcDbVisualStyle
  2
Linepattern
 70
    14
 71
     2
 72
     2
 73
     0
 90
        0
 40
0.6
 41
30.0
 62
     5
 63
     7
421
 16777215
 74
     1
 91
        4
 64
     7
 65
   257
 75
     7
175
     7
 42
1.0
 92
        8
 66
     7
 43
1.0
 76
     1
 77
     6
 78
     2
 67
     7
 79
     5
170
     0
171
     0
290
     0
174
     0
 93
        1
 44
0.0
173
     0
291
     1
 45
0.0
  0
VISUALSTYLE
  5
3C
102
{ACAD_REACTORS
330
2A
102
}
102
{ACAD_XDICTIONARY
360
2BE
102
}
330
2A
100
AcDbVisualStyle
  2
OverhangOff
 70
    21
 71
     2
 72
     2
 73
     0
 90
        0
 40
0.6
 41
30.0
 62
     5
 63
     7
421
 16777215
 74
     1
 91
        4
 64
     7
 65
   257
 75
     1
175
     1
 42
1.0
 92
        9
 66
     7
 43
1.0
 76
     1
 77
     6
 78
     2
 67
     7
 79
     5
170
     0
171
     0
290
     0
174
     0
 93
        1
 44
0.0
173
     0
291
     1
 45
0.0
  0
VISUALSTYLE
  5
33
102
{ACAD_REACTORS
330
2A
102
}
102
{ACAD_XDICTIONARY
360
2AC
102
}
330
2A
100
AcDbVisualStyle
  2
Realistic
 70
     8
 71
     2
 72
     3
 73
     0
 90
        2
 40
0.6
 41
30.0
 62
     5
 63
     7
421
 16777215
 74
     0
 91
        0
 64
     7
 65
   257
 75
     1
175
     1
 42
1.0
 92
        8
 66
   257
 43
1.0
 76
     1
 77
     6
 78
     2
 67
     7
 79
     3
170
     0
171
     0
290
     0
174
     0
 93
       13
 44
0.0
173
     0
291
     0
 45
0.0
  0
VISUALSTYLE
  5
42
102
{ACAD_REACTORS
330
2A
102
}
102
{ACAD_XDICTIONARY
360
2CA
102
}
330
2A
100
AcDbVisualStyle
  2
Shaded
 70
    27
 71
     2
 72
     2
 73
     1
 90
        2
 40
0.6
 41
30.0
 62
     5
 63
     7
421
 16777215
 74
     0
 91
        4
 64
     7
 65
   257
 75
     1
175
     1
 42
1.0
 92
        8
 66
   257
 43
1.0
 76
     1
 77
     6
 78
     2
 67
     8
425
  7895160
 79
     3
170
     0
171
     0
290
     0
174
     0
 93
        5
 44
0.0
173
     0
291
     0
 45
0.0
  0
VISUALSTYLE
  5
41
102
{ACAD_REACTORS
330
2A
102
}
102
{ACAD_XDICTIONARY
360
2C8
102
}
330
2A
100
AcDbVisualStyle
  2
Shaded with edges
 70
    26
 71
     2
 72
     2
 73
     1
 90
        2
 40
0.6
 41
30.0
 62
     5
 63
     7
421
 16777215
 74
     1
 91
       10
 64
     7
 65
   257
 75
     2
175
     1
 42
1.0
 92
        8
 66
   257
 43
1.0
 76
     1
 77
     6
 78
     2
 67
     7
 79
     3
170
     0
171
     0
290
     0
174
     0
 93
        5
 44
0.0
173
     0
291
     0
 45
0.0
  0
VISUALSTYLE
  5
3E
102
{ACAD_REACTORS
330
2A
102
}
102
{ACAD_XDICTIONARY
360
2C2
102
}
330
2A
100
AcDbVisualStyle
  2
Shades of Gray
 70
    23
 71
     2
 72
     2
 73
     3
 90
        0
 40
0.6
 41
30.0
 62
     5
 63
     7
421
 16777215
 74
     2
 91
        2
 64
     7
 65
     7
 75
     1
175
     1
 42
40.0
 92
        8
 66
     7
 43
1.0
 76
     1
 77
     6
 78
     2
 67
     7
 79
     3
170
     0
171
     0
290
     0
174
     0
 93
        1
 44
0.0
173
     0
291
     0
 45
0.0
  0
VISUALSTYLE
  5
3F
102
{ACAD_REACTORS
330
2A
102
}
102
{ACAD_XDICTIONARY
360
2C4
102
}
330
2A
100
AcDbVisualStyle
  2
Sketchy
 70
    24
 71
     1
 72
     2
 73
     2
 90
        0
 40
0.6
 41
30.0
 62
     5
 63
     7
421
 16777215
 74
     2
 91
        2
 64
     7
 65
     7
 75
     1
175
     1
 42
40.0
 92
       11
 66
     7
 43
1.0
 76
     1
 77
     6
 78
     2
 67
     7
 79
     6
170
     0
171
     0
290
     0
174
     0
 93
        1
 44
0.0
173
     0
291
     0
 45
0.0
  0
VISUALSTYLE
  5
37
102
{ACAD_REACTORS
330
2A
102
}
102
{ACAD_XDICTIONARY
360
2B4
102
}
330
2A
100
AcDbVisualStyle
  2
Thicken
 70
    13
 71
     2
 72
     2
 73
     0
 90
        0
 40
0.6
 41
30.0
 62
     5
 63
     7
421
 16777215
 74
     1
 91
        4
 64
     7
 65
   257
 75
     1
175
     1
 42
1.0
 92
       12
 66
     7
 43
1.0
 76
     1
 77
     6
 78
     2
 67
     7
 79
     5
170
     0
171
     0
290
     0
174
     0
 93
        1
 44
0.0
173
     0
291
     1
 45
0.0
  0
VISUALSTYLE
  5
30
102
{ACAD_REACTORS
330
2A
102
}
102
{ACAD_XDICTIONARY
360
2A6
102
}
330
2A
100
AcDbVisualStyle
  2
Wireframe
 70
     5
 71
     0
 72
     2
 73
     0
 90
        0
 40
0.6
 41
30.0
 62
     5
 63
     7
421
 16777215
 74
     1
 91
        4
 64
     7
 65
   257
 75
     1
175
     1
 42
1.0
 92
        0
 66
   257
 43
1.0
 76
     1
 77
     6
 78
     2
 67
     7
 79
     3
170
     0
171
     0
290
     0
174
     0
 93
        1
 44
0.0
173
     0
291
     0
 45
0.0
  0
VISUALSTYLE
  5
40
102
{ACAD_REACTORS
330
2A
102
}
102
{ACAD_XDICTIONARY
360
2C6
102
}
330
2A
100
AcDbVisualStyle
  2
X-Ray
 70
    25
 71
     2
 72
     2
 73
     1
 90
        1
 40
0.5
 41
30.0
 62
     5
 63
     7
421
 16777215
 74
     1
 91
        0
 64
     7
 65
   257
 75
     1
175
     1
 42
1.0
 92
        8
 66
     7
 43
1.0
 76
     1
 77
     6
 78
     2
 67
     7
 79
     3
170
     0
171
     0
290
     0
174
     0
 93
       13
 44
0.0
173
     0
291
     0
 45
0.0
  0
DICTIONARYVAR
  5
29A
102
{ACAD_REACTORS
330
299
102
}
330
299
100
DictionaryVariables
280
     0
  1
1:1
  0
DICTIONARYVAR
  5
2D3
102
{ACAD_REACTORS
330
299
102
}
330
299
100
DictionaryVariables
280
     0
  1
Standard
  0
DICTIONARYVAR
  5
2D2
102
{ACAD_REACTORS
330
299
102
}
330
299
100
DictionaryVariables
280
     0
  1
Standard
  0
DICTIONARYVAR
  5
29B
102
{ACAD_REACTORS
330
299
102
}
330
299
100
DictionaryVariables
280
     0
  1
2
  0
DICTIONARY
  5
2CF
330
5C
100
AcDbDictionary
280
     1
281
     1
  3
ACAD_XREC_ROUNDTRIP
360
2D0
  0
DICTIONARY
  5
2CC
330
5A
100
AcDbDictionary
280
     1
281
     1
  3
ACAD_ROUNDTRIP_2008_TABLESTYLE_CELLSTYLEMAP
360
2CD
  0
DICTIONARY
  5
2A4
330
2F
100
AcDbDictionary
280
     1
281
     1
  3
ACAD_XREC_ROUNDTRIP
360
2A5
  0
DICTIONARY
  5
2AA
330
32
100
AcDbDictionary
280
     1
281
     1
  3
ACAD_XREC_ROUNDTRIP
360
2AB
  0
DICTIONARY
  5
2B2
330
36
100
AcDbDictionary
280
     1
281
     1
  3
ACAD_XREC_ROUNDTRIP
360
2B3
  0
DICTIONARY
  5
2BA
330
3A
100
AcDbDictionary
280
     1
281
     1
  3
ACAD_XREC_ROUNDTRIP
360
2BB
  0
DICTIONARY
  5
2AE
330
34
100
AcDbDictionary
280
     1
281
     1
  3
ACAD_XREC_ROUNDTRIP
360
2AF
  0
DICTIONARY
  5
2B0
330
35
100
AcDbDictionary
280
     1
281
     1
  3
ACAD_XREC_ROUNDTRIP
360
2B1
  0
DICTIONARY
  5
2C0
330
3D
100
AcDbDictionary
280
     1
281
     1
  3
ACAD_XREC_ROUNDTRIP
360
2C1
  0
DICTIONARY
  5
2B8
330
39
100
AcDbDictionary
280
     1
281
     1
  3
ACAD_XREC_ROUNDTRIP
360
2B9
  0
DICTIONARY
  5
29C
330
2B
100
AcDbDictionary
280
     1
281
     1
  3
ACAD_XREC_ROUNDTRIP
360
29D
  0
DICTIONARY
  5
29E
330
2C
100
AcDbDictionary
280
     1
281
     1
  3
ACAD_XREC_ROUNDTRIP
360
29F
  0
DICTIONARY
  5
2A0
330
2D
100
AcDbDictionary
280
     1
281
     1
  3
ACAD_XREC_ROUNDTRIP
360
2A1
  0
DICTIONARY
  5
2A2
330
2E
100
AcDbDictionary
280
     1
281
     1
  3
ACAD_XREC_ROUNDTRIP
360
2A3
  0
DICTIONARY
  5
2A8
330
31
100
AcDbDictionary
280
     1
281
     1
  3
ACAD_XREC_ROUNDTRIP
360
2A9
  0
DICTIONARY
  5
2BC
330
3B
100
AcDbDictionary
280
     1
281
     1
  3
ACAD_XREC_ROUNDTRIP
360
2BD
  0
DICTIONARY
  5
2B6
330
38
100
AcDbDictionary
280
     1
281
     1
  3
ACAD_XREC_ROUNDTRIP
360
2B7
  0
DICTIONARY
  5
2BE
330
3C
100
AcDbDictionary
280
     1
281
     1
  3
ACAD_XREC_ROUNDTRIP
360
2BF
  0
DICTIONARY
  5
2AC
330
33
100
AcDbDictionary
280
     1
281
     1
  3
ACAD_XREC_ROUNDTRIP
360
2AD
  0
DICTIONARY
  5
2CA
330
42
100
AcDbDictionary
280
     1
281
     1
  3
ACAD_XREC_ROUNDTRIP
360
2CB
  0
DICTIONARY
  5
2C8
330
41
100
AcDbDictionary
280
     1
281
     1
  3
ACAD_XREC_ROUNDTRIP
360
2C9
  0
DICTIONARY
  5
2C2
330
3E
100
AcDbDictionary
280
     1
281
     1
  3
ACAD_XREC_ROUNDTRIP
360
2C3
  0
DICTIONARY
  5
2C4
330
3F
100
AcDbDictionary
280
     1
281
     1
  3
ACAD_XREC_ROUNDTRIP
360
2C5
  0
DICTIONARY
  5
2B4
330
37
100
AcDbDictionary
280
     1
281
     1
  3
ACAD_XREC_ROUNDTRIP
360
2B5
  0
DICTIONARY
  5
2A6
330
30
100
AcDbDictionary
280
     1
281
     1
  3
ACAD_XREC_ROUNDTRIP
360
2A7
  0
DICTIONARY
  5
2C6
330
40
100
AcDbDictionary
280
     1
281
     1
  3
ACAD_XREC_ROUNDTRIP
360
2C7
  0
XRECORD
  5
2D0
102
{ACAD_REACTORS
330
2CF
102
}
330
2CF
100
AcDbXrecord
280
     1
102
ACAD_ROUNDTRIP_2010_MLEADER_STYLE
  0
CELLSTYLEMAP
  5
2CD
102
{ACAD_REACTORS
330
2CC
102
}
330
2CC
100
AcDbCellStyleMap
 90
        3
300
CELLSTYLE
  1
TABLEFORMAT_BEGIN
 90
        5
170
     1
 91
        0
 92
    32768
 62
   257
 93
        1
300
CONTENTFORMAT
  1
CONTENTFORMAT_BEGIN
 90
        0
 91
        0
 92
        4
 93
        0
300

 40
0.0
140
1.0
 94
        5
 62
     0
340
11
144
0.25
309
CONTENTFORMAT_END
171
     1
301
MARGIN
  1
CELLMARGIN_BEGIN
 40
0.06
 40
0.06
 40
0.06
 40
0.06
 40
0.06
 40
0.06
309
CELLMARGIN_END
 94
        6
 95
        1
302
GRIDFORMAT
  1
GRIDFORMAT_BEGIN
 90
        0
 91
        1
 62
     0
 92
       -2
340
14
 93
        0
 40
0.045
309
GRIDFORMAT_END
 95
        2
302
GRIDFORMAT
  1
GRIDFORMAT_BEGIN
 90
        0
 91
        1
 62
     0
 92
       -2
340
14
 93
        0
 40
0.045
309
GRIDFORMAT_END
 95
        4
302
GRIDFORMAT
  1
GRIDFORMAT_BEGIN
 90
        0
 91
        1
 62
     0
 92
       -2
340
14
 93
        0
 40
0.045
309
GRIDFORMAT_END
 95
        8
302
GRIDFORMAT
  1
GRIDFORMAT_BEGIN
 90
        0
 91
        1
 62
     0
 92
       -2
340
14
 93
        0
 40
0.045
309
GRIDFORMAT_END
 95
       16
302
GRIDFORMAT
  1
GRIDFORMAT_BEGIN
 90
        0
 91
        1
 62
     0
 92
       -2
340
14
 93
        0
 40
0.045
309
GRIDFORMAT_END
 95
       32
302
GRIDFORMAT
  1
GRIDFORMAT_BEGIN
 90
        0
 91
        1
 62
     0
 92
       -2
340
14
 93
        0
 40
0.045
309
GRIDFORMAT_END
309
TABLEFORMAT_END
  1
CELLSTYLE_BEGIN
 90
        1
 91
        1
300
_TITLE
309
CELLSTYLE_END
300
CELLSTYLE
  1
TABLEFORMAT_BEGIN
 90
        5
170
     1
 91
        0
 92
        0
 62
   257
 93
        1
300
CONTENTFORMAT
  1
CONTENTFORMAT_BEGIN
 90
        0
 91
        0
 92
        4
 93
        0
300

 40
0.0
140
1.0
 94
        5
 62
     0
340
11
144
0.18
309
CONTENTFORMAT_END
171
     1
301
MARGIN
  1
CELLMARGIN_BEGIN
 40
0.06
 40
0.06
 40
0.06
 40
0.06
 40
0.06
 40
0.06
309
CELLMARGIN_END
 94
        6
 95
        1
302
GRIDFORMAT
  1
GRIDFORMAT_BEGIN
 90
        0
 91
        1
 62
     0
 92
       -2
340
14
 93
        0
 40
0.045
309
GRIDFORMAT_END
 95
        2
302
GRIDFORMAT
  1
GRIDFORMAT_BEGIN
 90
        0
 91
        1
 62
     0
 92
       -2
340
14
 93
        0
 40
0.045
309
GRIDFORMAT_END
 95
        4
302
GRIDFORMAT
  1
GRIDFORMAT_BEGIN
 90
        0
 91
        1
 62
     0
 92
       -2
340
14
 93
        0
 40
0.045
309
GRIDFORMAT_END
 95
        8
302
GRIDFORMAT
  1
GRIDFORMAT_BEGIN
 90
        0
 91
        1
 62
     0
 92
       -2
340
14
 93
        0
 40
0.045
309
GRIDFORMAT_END
 95
       16
302
GRIDFORMAT
  1
GRIDFORMAT_BEGIN
 90
        0
 91
        1
 62
     0
 92
       -2
340
14
 93
        0
 40
0.045
309
GRIDFORMAT_END
 95
       32
302
GRIDFORMAT
  1
GRIDFORMAT_BEGIN
 90
        0
 91
        1
 62
     0
 92
       -2
340
14
 93
        0
 40
0.045
309
GRIDFORMAT_END
309
TABLEFORMAT_END
  1
CELLSTYLE_BEGIN
 90
        2
 91
        1
300
_HEADER
309
CELLSTYLE_END
300
CELLSTYLE
  1
TABLEFORMAT_BEGIN
 90
        5
170
     1
 91
        0
 92
        0
 62
   257
 93
        1
300
CONTENTFORMAT
  1
CONTENTFORMAT_BEGIN
 90
        0
 91
        0
 92
        4
 93
        0
300

 40
0.0
140
1.0
 94
        2
 62
     0
340
11
144
0.18
309
CONTENTFORMAT_END
171
     1
301
MARGIN
  1
CELLMARGIN_BEGIN
 40
0.06
 40
0.06
 40
0.06
 40
0.06
 40
0.06
 40
0.06
309
CELLMARGIN_END
 94
        6
 95
        1
302
GRIDFORMAT
  1
GRIDFORMAT_BEGIN
 90
        0
 91
        1
 62
     0
 92
       -2
340
14
 93
        0
 40
0.045
309
GRIDFORMAT_END
 95
        2
302
GRIDFORMAT
  1
GRIDFORMAT_BEGIN
 90
        0
 91
        1
 62
     0
 92
       -2
340
14
 93
        0
 40
0.045
309
GRIDFORMAT_END
 95
        4
302
GRIDFORMAT
  1
GRIDFORMAT_BEGIN
 90
        0
 91
        1
 62
     0
 92
       -2
340
14
 93
        0
 40
0.045
309
GRIDFORMAT_END
 95
        8
302
GRIDFORMAT
  1
GRIDFORMAT_BEGIN
 90
        0
 91
        1
 62
     0
 92
       -2
340
14
 93
        0
 40
0.045
309
GRIDFORMAT_END
 95
       16
302
GRIDFORMAT
  1
GRIDFORMAT_BEGIN
 90
        0
 91
        1
 62
     0
 92
       -2
340
14
 93
        0
 40
0.045
309
GRIDFORMAT_END
 95
       32
302
GRIDFORMAT
  1
GRIDFORMAT_BEGIN
 90
        0
 91
        1
 62
     0
 92
       -2
340
14
 93
        0
 40
0.045
309
GRIDFORMAT_END
309
TABLEFORMAT_END
  1
CELLSTYLE_BEGIN
 90
        3
 91
        2
300
_DATA
309
CELLSTYLE_END
  0
XRECORD
  5
2A5
102
{ACAD_REACTORS
330
2A4
102
}
330
2A4
100
AcDbXrecord
280
     1
102
RTVSPropertyOp0
 70
     1
102
RTVSPropertyOp1
 70
     1
102
RTVSPropertyOp2
 70
     1
102
RTVSPropertyOp3
 70
     1
102
RTVSPropertyOp4
 70
     1
102
RTVSPropertyOp5
 70
     1
102
RTVSPropertyOp6
 70
     1
102
RTVSPropertyOp7
 70
     1
102
RTVSPropertyOp8
 70
     1
102
RTVSPropertyOp9
 70
     1
102
RTVSPropertyOp10
 70
     1
102
RTVSPropertyOp11
 70
     1
102
RTVSPropertyOp12
 70
     1
102
RTVSPropertyOp13
 70
     1
102
RTVSPropertyOp14
 70
     1
102
RTVSPropertyOp15
 70
     1
102
RTVSPropertyOp16
 70
     1
102
RTVSPropertyOp17
 70
     1
102
RTVSPropertyOp18
 70
     1
102
RTVSPropertyOp19
 70
     1
102
RTVSPropertyOp20
 70
     1
102
RTVSPropertyOp21
 70
     1
102
RTVSPropertyOp22
 70
     1
102
RTVSPropertyOp23
 70
     1
102
RTVSPropertyOp24
 70
     1
102
RTVSPropertyOp25
 70
     1
102
RTVSPropertyOp26
 70
     1
102
RTVSPropertyOp27
 70
     1
102
RTVSPropertyOp28
 70
     1
102
RTVSPropertyOp29
 70
     1
102
RTVSPropertyOp30
 70
     1
102
RTVSPropertyOp31
 70
     1
102
RTVSPropertyOp32
 70
     1
102
RTVSPropertyOp33
 70
     1
102
RTVSPropertyOp34
 70
     1
102
RTVSPropertyOp35
 70
     1
102
RTVSPropertyOp36
 70
     1
102
RTVSPropertyOp37
 70
     1
102
RTVSPropertyOp38
 70
     1
102
RTVSPropertyOp39
 70
     1
102
RTVSPropertyOp40
 70
     1
102
RTVSPropertyOp41
 70
     1
102
RTVSPropertyOp42
 70
     1
102
RTVSPropertyOp43
 70
     1
102
RTVSPropertyOp44
 70
     1
102
RTVSPropertyOp45
 70
     1
102
RTVSPropertyOp46
 70
     1
102
RTVSPropertyOp47
 70
     1
102
RTVSPropertyOp48
 70
     1
102
RTVSPropertyOp49
 70
     1
102
RTVSPropertyOp50
 70
     1
102
RTVSPropertyOp51
 70
     0
102
RTVSPropertyOp52
 70
     0
102
RTVSPropertyOp53
 70
     1
102
RTVSPropertyOp54
 70
     1
102
RTVSPropertyOp55
 70
     1
102
RTVSPropertyOp56
 70
     1
102
RTVSPropertyOp57
 70
     1
102
RTVSPost2010Prop28
280
     1
102
RTVSPost2010PropOp28
 70
     1
102
RTVSPost2010Prop29
280
     1
102
RTVSPost2010PropOp29
 70
     1
102
RTVSPost2010Prop30
280
     0
102
RTVSPost2010PropOp30
 70
     1
102
RTVSPost2010Prop31
280
     0
102
RTVSPost2010PropOp31
 70
     1
102
RTVSPost2010Prop32
280
     0
102
RTVSPost2010PropOp32
 70
     1
102
RTVSPost2010Prop33
280
     0
102
RTVSPost2010PropOp33
 70
     1
102
RTVSPost2010Prop34
280
     0
102
RTVSPost2010PropOp34
 70
     1
102
RTVSPost2010Prop35
280
     0
102
RTVSPost2010PropOp35
 70
     1
102
RTVSPost2010Prop36
280
     0
102
RTVSPost2010PropOp36
 70
     1
102
RTVSPost2010Prop37
 90
       50
102
RTVSPost2010PropOp37
 70
     1
102
RTVSPost2010Prop38
140
0.0
102
RTVSPost2010PropOp38
 70
     1
102
RTVSPost2010Prop39
140
1.0
102
RTVSPost2010PropOp39
 70
     1
102
RTVSPost2010Prop40
 90
        0
102
RTVSPost2010PropOp40
 70
     1
102
RTVSPost2010Prop41ColorIndex
 90
       18
102
RTVSPost2010Prop41ColorRGB
 90
        0
102
RTVSPost2010PropOp41
 70
     1
102
RTVSPost2010Prop42
 90
       50
102
RTVSPost2010PropOp42
 70
     1
102
RTVSPost2010Prop43
 90
        3
102
RTVSPost2010PropOp43
 70
     1
102
RTVSPost2010Prop44ColorIndex
 90
        5
102
RTVSPost2010Prop44ColorRGB
 90
      255
102
RTVSPost2010PropOp44
 70
     1
102
RTVSPost2010Prop45
280
     0
102
RTVSPost2010PropOp45
 70
     1
102
RTVSPost2010Prop46
 90
       50
102
RTVSPost2010PropOp46
 70
     1
102
RTVSPost2010Prop47
 90
       50
102
RTVSPost2010PropOp47
 70
     1
102
RTVSPost2010Prop48
 90
       50
102
RTVSPost2010PropOp48
 70
     1
102
RTVSPost2010Prop49
280
     0
102
RTVSPost2010PropOp49
 70
     1
102
RTVSPost2010Prop50
 90
       50
102
RTVSPost2010PropOp50
 70
     1
102
RTVSPost2010Prop51ColorIndex
 90
      256
102
RTVSPost2010Prop51ColorRGB
 90
-16777216
102
RTVSPost2010PropOp51
 70
     0
102
RTVSPost2010Prop52
140
1.0
102
RTVSPost2010PropOp52
 70
     0
102
RTVSPost2010Prop53
 90
        2
102
RTVSPost2010PropOp53
 70
     1
102
RTVSPost2010Prop54
  1
strokes_ogs.tif
102
RTVSPost2010PropOp54
 70
     1
102
RTVSPost2010Prop55
280
     0
102
RTVSPost2010PropOp55
 70
     1
102
RTVSPost2010Prop56
140
1.0
102
RTVSPost2010PropOp56
 70
     1
102
RTVSPost2010Prop57
140
1.0
102
RTVSPost2010PropOp57
 70
     1
  0
XRECORD
  5
2AB
102
{ACAD_REACTORS
330
2AA
102
}
330
2AA
100
AcDbXrecord
280
     1
102
RTVSPropertyOp0
 70
     1
102
RTVSPropertyOp1
 70
     1
102
RTVSPropertyOp2
 70
     1
102
RTVSPropertyOp3
 70
     1
102
RTVSPropertyOp4
 70
     1
102
RTVSPropertyOp5
 70
     1
102
RTVSPropertyOp6
 70
     1
102
RTVSPropertyOp7
 70
     1
102
RTVSPropertyOp8
 70
     1
102
RTVSPropertyOp9
 70
     1
102
RTVSPropertyOp10
 70
     1
102
RTVSPropertyOp11
 70
     1
102
RTVSPropertyOp12
 70
     1
102
RTVSPropertyOp13
 70
     1
102
RTVSPropertyOp14
 70
     1
102
RTVSPropertyOp15
 70
     1
102
RTVSPropertyOp16
 70
     1
102
RTVSPropertyOp17
 70
     1
102
RTVSPropertyOp18
 70
     1
102
RTVSPropertyOp19
 70
     1
102
RTVSPropertyOp20
 70
     1
102
RTVSPropertyOp21
 70
     1
102
RTVSPropertyOp22
 70
     1
102
RTVSPropertyOp23
 70
     1
102
RTVSPropertyOp24
 70
     1
102
RTVSPropertyOp25
 70
     1
102
RTVSPropertyOp26
 70
     1
102
RTVSPropertyOp27
 70
     1
102
RTVSPropertyOp28
 70
     1
102
RTVSPropertyOp29
 70
     1
102
RTVSPropertyOp30
 70
     1
102
RTVSPropertyOp31
 70
     1
102
RTVSPropertyOp32
 70
     1
102
RTVSPropertyOp33
 70
     1
102
RTVSPropertyOp34
 70
     1
102
RTVSPropertyOp35
 70
     1
102
RTVSPropertyOp36
 70
     1
102
RTVSPropertyOp37
 70
     1
102
RTVSPropertyOp38
 70
     1
102
RTVSPropertyOp39
 70
     1
102
RTVSPropertyOp40
 70
     1
102
RTVSPropertyOp41
 70
     1
102
RTVSPropertyOp42
 70
     1
102
RTVSPropertyOp43
 70
     1
102
RTVSPropertyOp44
 70
     1
102
RTVSPropertyOp45
 70
     1
102
RTVSPropertyOp46
 70
     1
102
RTVSPropertyOp47
 70
     1
102
RTVSPropertyOp48
 70
     1
102
RTVSPropertyOp49
 70
     1
102
RTVSPropertyOp50
 70
     1
102
RTVSPropertyOp51
 70
     0
102
RTVSPropertyOp52
 70
     0
102
RTVSPropertyOp53
 70
     1
102
RTVSPropertyOp54
 70
     1
102
RTVSPropertyOp55
 70
     1
102
RTVSPropertyOp56
 70
     1
102
RTVSPropertyOp57
 70
     1
102
RTVSPost2010Prop28
280
     0
102
RTVSPost2010PropOp28
 70
     1
102
RTVSPost2010Prop29
280
     1
102
RTVSPost2010PropOp29
 70
     1
102
RTVSPost2010Prop30
280
     1
102
RTVSPost2010PropOp30
 70
     1
102
RTVSPost2010Prop31
280
     0
102
RTVSPost2010PropOp31
 70
     1
102
RTVSPost2010Prop32
280
     0
102
RTVSPost2010PropOp32
 70
     1
102
RTVSPost2010Prop33
280
     0
102
RTVSPost2010PropOp33
 70
     1
102
RTVSPost2010Prop34
280
     0
102
RTVSPost2010PropOp34
 70
     1
102
RTVSPost2010Prop35
280
     0
102
RTVSPost2010PropOp35
 70
     1
102
RTVSPost2010Prop36
280
     0
102
RTVSPost2010PropOp36
 70
     1
102
RTVSPost2010Prop37
 90
       50
102
RTVSPost2010PropOp37
 70
     1
102
RTVSPost2010Prop38
140
0.0
102
RTVSPost2010PropOp38
 70
     1
102
RTVSPost2010Prop39
140
1.0
102
RTVSPost2010PropOp39
 70
     1
102
RTVSPost2010Prop40
 90
        0
102
RTVSPost2010PropOp40
 70
     1
102
RTVSPost2010Prop41ColorIndex
 90
       18
102
RTVSPost2010Prop41ColorRGB
 90
        0
102
RTVSPost2010PropOp41
 70
     1
102
RTVSPost2010Prop42
 90
       50
102
RTVSPost2010PropOp42
 70
     1
102
RTVSPost2010Prop43
 90
        3
102
RTVSPost2010PropOp43
 70
     1
102
RTVSPost2010Prop44ColorIndex
 90
        5
102
RTVSPost2010Prop44ColorRGB
 90
      255
102
RTVSPost2010PropOp44
 70
     1
102
RTVSPost2010Prop45
280
     0
102
RTVSPost2010PropOp45
 70
     1
102
RTVSPost2010Prop46
 90
       50
102
RTVSPost2010PropOp46
 70
     1
102
RTVSPost2010Prop47
 90
       50
102
RTVSPost2010PropOp47
 70
     1
102
RTVSPost2010Prop48
 90
       50
102
RTVSPost2010PropOp48
 70
     1
102
RTVSPost2010Prop49
280
     0
102
RTVSPost2010PropOp49
 70
     1
102
RTVSPost2010Prop50
 90
       50
102
RTVSPost2010PropOp50
 70
     1
102
RTVSPost2010Prop51ColorIndex
 90
      256
102
RTVSPost2010Prop51ColorRGB
 90
-16777216
102
RTVSPost2010PropOp51
 70
     0
102
RTVSPost2010Prop52
140
1.0
102
RTVSPost2010PropOp52
 70
     0
102
RTVSPost2010Prop53
 90
        2
102
RTVSPost2010PropOp53
 70
     1
102
RTVSPost2010Prop54
  1
strokes_ogs.tif
102
RTVSPost2010PropOp54
 70
     1
102
RTVSPost2010Prop55
280
     0
102
RTVSPost2010PropOp55
 70
     1
102
RTVSPost2010Prop56
140
1.0
102
RTVSPost2010PropOp56
 70
     1
102
RTVSPost2010Prop57
140
1.0
102
RTVSPost2010PropOp57
 70
     1
  0
XRECORD
  5
2B3
102
{ACAD_REACTORS
330
2B2
102
}
330
2B2
100
AcDbXrecord
280
     1
102
RTVSPropertyOp0
 70
     1
102
RTVSPropertyOp1
 70
     1
102
RTVSPropertyOp2
 70
     1
102
RTVSPropertyOp3
 70
     1
102
RTVSPropertyOp4
 70
     1
102
RTVSPropertyOp5
 70
     1
102
RTVSPropertyOp6
 70
     1
102
RTVSPropertyOp7
 70
     1
102
RTVSPropertyOp8
 70
     1
102
RTVSPropertyOp9
 70
     1
102
RTVSPropertyOp10
 70
     1
102
RTVSPropertyOp11
 70
     1
102
RTVSPropertyOp12
 70
     1
102
RTVSPropertyOp13
 70
     1
102
RTVSPropertyOp14
 70
     1
102
RTVSPropertyOp15
 70
     1
102
RTVSPropertyOp16
 70
     1
102
RTVSPropertyOp17
 70
     1
102
RTVSPropertyOp18
 70
     1
102
RTVSPropertyOp19
 70
     1
102
RTVSPropertyOp20
 70
     1
102
RTVSPropertyOp21
 70
     1
102
RTVSPropertyOp22
 70
     1
102
RTVSPropertyOp23
 70
     1
102
RTVSPropertyOp24
 70
     1
102
RTVSPropertyOp25
 70
     1
102
RTVSPropertyOp26
 70
     1
102
RTVSPropertyOp27
 70
     1
102
RTVSPropertyOp28
 70
     1
102
RTVSPropertyOp29
 70
     1
102
RTVSPropertyOp30
 70
     1
102
RTVSPropertyOp31
 70
     1
102
RTVSPropertyOp32
 70
     1
102
RTVSPropertyOp33
 70
     1
102
RTVSPropertyOp34
 70
     1
102
RTVSPropertyOp35
 70
     1
102
RTVSPropertyOp36
 70
     1
102
RTVSPropertyOp37
 70
     1
102
RTVSPropertyOp38
 70
     1
102
RTVSPropertyOp39
 70
     1
102
RTVSPropertyOp40
 70
     1
102
RTVSPropertyOp41
 70
     1
102
RTVSPropertyOp42
 70
     1
102
RTVSPropertyOp43
 70
     1
102
RTVSPropertyOp44
 70
     1
102
RTVSPropertyOp45
 70
     1
102
RTVSPropertyOp46
 70
     1
102
RTVSPropertyOp47
 70
     1
102
RTVSPropertyOp48
 70
     1
102
RTVSPropertyOp49
 70
     1
102
RTVSPropertyOp50
 70
     1
102
RTVSPropertyOp51
 70
     0
102
RTVSPropertyOp52
 70
     0
102
RTVSPropertyOp53
 70
     1
102
RTVSPropertyOp54
 70
     1
102
RTVSPropertyOp55
 70
     1
102
RTVSPropertyOp56
 70
     1
102
RTVSPropertyOp57
 70
     1
102
RTVSPost2010Prop28
280
     0
102
RTVSPost2010PropOp28
 70
     1
102
RTVSPost2010Prop29
280
     1
102
RTVSPost2010PropOp29
 70
     1
102
RTVSPost2010Prop30
280
     1
102
RTVSPost2010PropOp30
 70
     1
102
RTVSPost2010Prop31
280
     0
102
RTVSPost2010PropOp31
 70
     1
102
RTVSPost2010Prop32
280
     0
102
RTVSPost2010PropOp32
 70
     1
102
RTVSPost2010Prop33
280
     0
102
RTVSPost2010PropOp33
 70
     1
102
RTVSPost2010Prop34
280
     0
102
RTVSPost2010PropOp34
 70
     1
102
RTVSPost2010Prop35
280
     0
102
RTVSPost2010PropOp35
 70
     1
102
RTVSPost2010Prop36
280
     0
102
RTVSPost2010PropOp36
 70
     1
102
RTVSPost2010Prop37
 90
       50
102
RTVSPost2010PropOp37
 70
     1
102
RTVSPost2010Prop38
140
0.0
102
RTVSPost2010PropOp38
 70
     1
102
RTVSPost2010Prop39
140
1.0
102
RTVSPost2010PropOp39
 70
     1
102
RTVSPost2010Prop40
 90
        0
102
RTVSPost2010PropOp40
 70
     1
102
RTVSPost2010Prop41ColorIndex
 90
       18
102
RTVSPost2010Prop41ColorRGB
 90
        0
102
RTVSPost2010PropOp41
 70
     1
102
RTVSPost2010Prop42
 90
       50
102
RTVSPost2010PropOp42
 70
     1
102
RTVSPost2010Prop43
 90
        3
102
RTVSPost2010PropOp43
 70
     1
102
RTVSPost2010Prop44ColorIndex
 90
        5
102
RTVSPost2010Prop44ColorRGB
 90
      255
102
RTVSPost2010PropOp44
 70
     1
102
RTVSPost2010Prop45
280
     0
102
RTVSPost2010PropOp45
 70
     1
102
RTVSPost2010Prop46
 90
       50
102
RTVSPost2010PropOp46
 70
     1
102
RTVSPost2010Prop47
 90
       50
102
RTVSPost2010PropOp47
 70
     1
102
RTVSPost2010Prop48
 90
       50
102
RTVSPost2010PropOp48
 70
     1
102
RTVSPost2010Prop49
280
     0
102
RTVSPost2010PropOp49
 70
     1
102
RTVSPost2010Prop50
 90
       50
102
RTVSPost2010PropOp50
 70
     1
102
RTVSPost2010Prop51ColorIndex
 90
      256
102
RTVSPost2010Prop51ColorRGB
 90
-16777216
102
RTVSPost2010PropOp51
 70
     0
102
RTVSPost2010Prop52
140
1.0
102
RTVSPost2010PropOp52
 70
     0
102
RTVSPost2010Prop53
 90
        2
102
RTVSPost2010PropOp53
 70
     1
102
RTVSPost2010Prop54
  1
strokes_ogs.tif
102
RTVSPost2010PropOp54
 70
     1
102
RTVSPost2010Prop55
280
     0
102
RTVSPost2010PropOp55
 70
     1
102
RTVSPost2010Prop56
140
1.0
102
RTVSPost2010PropOp56
 70
     1
102
RTVSPost2010Prop57
140
1.0
102
RTVSPost2010PropOp57
 70
     1
  0
XRECORD
  5
2BB
102
{ACAD_REACTORS
330
2BA
102
}
330
2BA
100
AcDbXrecord
280
     1
102
RTVSPropertyOp0
 70
     1
102
RTVSPropertyOp1
 70
     1
102
RTVSPropertyOp2
 70
     1
102
RTVSPropertyOp3
 70
     1
102
RTVSPropertyOp4
 70
     1
102
RTVSPropertyOp5
 70
     1
102
RTVSPropertyOp6
 70
     1
102
RTVSPropertyOp7
 70
     1
102
RTVSPropertyOp8
 70
     1
102
RTVSPropertyOp9
 70
     1
102
RTVSPropertyOp10
 70
     1
102
RTVSPropertyOp11
 70
     1
102
RTVSPropertyOp12
 70
     1
102
RTVSPropertyOp13
 70
     1
102
RTVSPropertyOp14
 70
     1
102
RTVSPropertyOp15
 70
     1
102
RTVSPropertyOp16
 70
     1
102
RTVSPropertyOp17
 70
     1
102
RTVSPropertyOp18
 70
     1
102
RTVSPropertyOp19
 70
     1
102
RTVSPropertyOp20
 70
     1
102
RTVSPropertyOp21
 70
     1
102
RTVSPropertyOp22
 70
     1
102
RTVSPropertyOp23
 70
     1
102
RTVSPropertyOp24
 70
     1
102
RTVSPropertyOp25
 70
     1
102
RTVSPropertyOp26
 70
     1
102
RTVSPropertyOp27
 70
     1
102
RTVSPropertyOp28
 70
     1
102
RTVSPropertyOp29
 70
     1
102
RTVSPropertyOp30
 70
     1
102
RTVSPropertyOp31
 70
     1
102
RTVSPropertyOp32
 70
     1
102
RTVSPropertyOp33
 70
     1
102
RTVSPropertyOp34
 70
     1
102
RTVSPropertyOp35
 70
     1
102
RTVSPropertyOp36
 70
     1
102
RTVSPropertyOp37
 70
     1
102
RTVSPropertyOp38
 70
     1
102
RTVSPropertyOp39
 70
     1
102
RTVSPropertyOp40
 70
     1
102
RTVSPropertyOp41
 70
     1
102
RTVSPropertyOp42
 70
     1
102
RTVSPropertyOp43
 70
     1
102
RTVSPropertyOp44
 70
     1
102
RTVSPropertyOp45
 70
     1
102
RTVSPropertyOp46
 70
     1
102
RTVSPropertyOp47
 70
     1
102
RTVSPropertyOp48
 70
     1
102
RTVSPropertyOp49
 70
     1
102
RTVSPropertyOp50
 70
     1
102
RTVSPropertyOp51
 70
     0
102
RTVSPropertyOp52
 70
     0
102
RTVSPropertyOp53
 70
     1
102
RTVSPropertyOp54
 70
     1
102
RTVSPropertyOp55
 70
     1
102
RTVSPropertyOp56
 70
     1
102
RTVSPropertyOp57
 70
     1
102
RTVSPost2010Prop28
280
     0
102
RTVSPost2010PropOp28
 70
     1
102
RTVSPost2010Prop29
280
     1
102
RTVSPost2010PropOp29
 70
     1
102
RTVSPost2010Prop30
280
     1
102
RTVSPost2010PropOp30
 70
     1
102
RTVSPost2010Prop31
280
     0
102
RTVSPost2010PropOp31
 70
     1
102
RTVSPost2010Prop32
280
     0
102
RTVSPost2010PropOp32
 70
     1
102
RTVSPost2010Prop33
280
     0
102
RTVSPost2010PropOp33
 70
     1
102
RTVSPost2010Prop34
280
     0
102
RTVSPost2010PropOp34
 70
     1
102
RTVSPost2010Prop35
280
     0
102
RTVSPost2010PropOp35
 70
     1
102
RTVSPost2010Prop36
280
     0
102
RTVSPost2010PropOp36
 70
     1
102
RTVSPost2010Prop37
 90
       50
102
RTVSPost2010PropOp37
 70
     1
102
RTVSPost2010Prop38
140
0.0
102
RTVSPost2010PropOp38
 70
     1
102
RTVSPost2010Prop39
140
1.0
102
RTVSPost2010PropOp39
 70
     1
102
RTVSPost2010Prop40
 90
        0
102
RTVSPost2010PropOp40
 70
     1
102
RTVSPost2010Prop41ColorIndex
 90
       18
102
RTVSPost2010Prop41ColorRGB
 90
        0
102
RTVSPost2010PropOp41
 70
     1
102
RTVSPost2010Prop42
 90
       50
102
RTVSPost2010PropOp42
 70
     1
102
RTVSPost2010Prop43
 90
        3
102
RTVSPost2010PropOp43
 70
     1
102
RTVSPost2010Prop44ColorIndex
 90
        5
102
RTVSPost2010Prop44ColorRGB
 90
      255
102
RTVSPost2010PropOp44
 70
     1
102
RTVSPost2010Prop45
280
     0
102
RTVSPost2010PropOp45
 70
     1
102
RTVSPost2010Prop46
 90
       50
102
RTVSPost2010PropOp46
 70
     1
102
RTVSPost2010Prop47
 90
       50
102
RTVSPost2010PropOp47
 70
     1
102
RTVSPost2010Prop48
 90
       50
102
RTVSPost2010PropOp48
 70
     1
102
RTVSPost2010Prop49
280
     0
102
RTVSPost2010PropOp49
 70
     1
102
RTVSPost2010Prop50
 90
       50
102
RTVSPost2010PropOp50
 70
     1
102
RTVSPost2010Prop51ColorIndex
 90
      256
102
RTVSPost2010Prop51ColorRGB
 90
-16777216
102
RTVSPost2010PropOp51
 70
     0
102
RTVSPost2010Prop52
140
1.0
102
RTVSPost2010PropOp52
 70
     0
102
RTVSPost2010Prop53
 90
        2
102
RTVSPost2010PropOp53
 70
     1
102
RTVSPost2010Prop54
  1
strokes_ogs.tif
102
RTVSPost2010PropOp54
 70
     1
102
RTVSPost2010Prop55
280
     0
102
RTVSPost2010PropOp55
 70
     1
102
RTVSPost2010Prop56
140
1.0
102
RTVSPost2010PropOp56
 70
     1
102
RTVSPost2010Prop57
140
1.0
102
RTVSPost2010PropOp57
 70
     1
  0
XRECORD
  5
2AF
102
{ACAD_REACTORS
330
2AE
102
}
330
2AE
100
AcDbXrecord
280
     1
102
RTVSPropertyOp0
 70
     1
102
RTVSPropertyOp1
 70
     1
102
RTVSPropertyOp2
 70
     1
102
RTVSPropertyOp3
 70
     1
102
RTVSPropertyOp4
 70
     1
102
RTVSPropertyOp5
 70
     1
102
RTVSPropertyOp6
 70
     1
102
RTVSPropertyOp7
 70
     1
102
RTVSPropertyOp8
 70
     1
102
RTVSPropertyOp9
 70
     1
102
RTVSPropertyOp10
 70
     1
102
RTVSPropertyOp11
 70
     1
102
RTVSPropertyOp12
 70
     1
102
RTVSPropertyOp13
 70
     1
102
RTVSPropertyOp14
 70
     1
102
RTVSPropertyOp15
 70
     1
102
RTVSPropertyOp16
 70
     1
102
RTVSPropertyOp17
 70
     1
102
RTVSPropertyOp18
 70
     1
102
RTVSPropertyOp19
 70
     1
102
RTVSPropertyOp20
 70
     1
102
RTVSPropertyOp21
 70
     1
102
RTVSPropertyOp22
 70
     1
102
RTVSPropertyOp23
 70
     1
102
RTVSPropertyOp24
 70
     1
102
RTVSPropertyOp25
 70
     1
102
RTVSPropertyOp26
 70
     1
102
RTVSPropertyOp27
 70
     1
102
RTVSPropertyOp28
 70
     1
102
RTVSPropertyOp29
 70
     1
102
RTVSPropertyOp30
 70
     1
102
RTVSPropertyOp31
 70
     1
102
RTVSPropertyOp32
 70
     1
102
RTVSPropertyOp33
 70
     1
102
RTVSPropertyOp34
 70
     1
102
RTVSPropertyOp35
 70
     1
102
RTVSPropertyOp36
 70
     1
102
RTVSPropertyOp37
 70
     1
102
RTVSPropertyOp38
 70
     1
102
RTVSPropertyOp39
 70
     1
102
RTVSPropertyOp40
 70
     1
102
RTVSPropertyOp41
 70
     1
102
RTVSPropertyOp42
 70
     1
102
RTVSPropertyOp43
 70
     1
102
RTVSPropertyOp44
 70
     1
102
RTVSPropertyOp45
 70
     1
102
RTVSPropertyOp46
 70
     1
102
RTVSPropertyOp47
 70
     1
102
RTVSPropertyOp48
 70
     1
102
RTVSPropertyOp49
 70
     1
102
RTVSPropertyOp50
 70
     1
102
RTVSPropertyOp51
 70
     0
102
RTVSPropertyOp52
 70
     0
102
RTVSPropertyOp53
 70
     1
102
RTVSPropertyOp54
 70
     1
102
RTVSPropertyOp55
 70
     1
102
RTVSPropertyOp56
 70
     1
102
RTVSPropertyOp57
 70
     1
102
RTVSPost2010Prop28
280
     0
102
RTVSPost2010PropOp28
 70
     1
102
RTVSPost2010Prop29
280
     1
102
RTVSPost2010PropOp29
 70
     1
102
RTVSPost2010Prop30
280
     1
102
RTVSPost2010PropOp30
 70
     1
102
RTVSPost2010Prop31
280
     0
102
RTVSPost2010PropOp31
 70
     1
102
RTVSPost2010Prop32
280
     0
102
RTVSPost2010PropOp32
 70
     1
102
RTVSPost2010Prop33
280
     0
102
RTVSPost2010PropOp33
 70
     1
102
RTVSPost2010Prop34
280
     0
102
RTVSPost2010PropOp34
 70
     1
102
RTVSPost2010Prop35
280
     0
102
RTVSPost2010PropOp35
 70
     1
102
RTVSPost2010Prop36
280
     0
102
RTVSPost2010PropOp36
 70
     1
102
RTVSPost2010Prop37
 90
       50
102
RTVSPost2010PropOp37
 70
     1
102
RTVSPost2010Prop38
140
0.0
102
RTVSPost2010PropOp38
 70
     1
102
RTVSPost2010Prop39
140
1.0
102
RTVSPost2010PropOp39
 70
     1
102
RTVSPost2010Prop40
 90
        0
102
RTVSPost2010PropOp40
 70
     1
102
RTVSPost2010Prop41ColorIndex
 90
       18
102
RTVSPost2010Prop41ColorRGB
 90
        0
102
RTVSPost2010PropOp41
 70
     1
102
RTVSPost2010Prop42
 90
       50
102
RTVSPost2010PropOp42
 70
     1
102
RTVSPost2010Prop43
 90
        3
102
RTVSPost2010PropOp43
 70
     1
102
RTVSPost2010Prop44ColorIndex
 90
        5
102
RTVSPost2010Prop44ColorRGB
 90
      255
102
RTVSPost2010PropOp44
 70
     1
102
RTVSPost2010Prop45
280
     0
102
RTVSPost2010PropOp45
 70
     1
102
RTVSPost2010Prop46
 90
       50
102
RTVSPost2010PropOp46
 70
     1
102
RTVSPost2010Prop47
 90
       50
102
RTVSPost2010PropOp47
 70
     1
102
RTVSPost2010Prop48
 90
       50
102
RTVSPost2010PropOp48
 70
     1
102
RTVSPost2010Prop49
280
     0
102
RTVSPost2010PropOp49
 70
     1
102
RTVSPost2010Prop50
 90
       50
102
RTVSPost2010PropOp50
 70
     1
102
RTVSPost2010Prop51ColorIndex
 90
      256
102
RTVSPost2010Prop51ColorRGB
 90
-16777216
102
RTVSPost2010PropOp51
 70
     0
102
RTVSPost2010Prop52
140
1.0
102
RTVSPost2010PropOp52
 70
     0
102
RTVSPost2010Prop53
 90
        2
102
RTVSPost2010PropOp53
 70
     1
102
RTVSPost2010Prop54
  1
strokes_ogs.tif
102
RTVSPost2010PropOp54
 70
     1
102
RTVSPost2010Prop55
280
     0
102
RTVSPost2010PropOp55
 70
     1
102
RTVSPost2010Prop56
140
1.0
102
RTVSPost2010PropOp56
 70
     1
102
RTVSPost2010Prop57
140
1.0
102
RTVSPost2010PropOp57
 70
     1
  0
XRECORD
  5
2B1
102
{ACAD_REACTORS
330
2B0
102
}
330
2B0
100
AcDbXrecord
280
     1
102
RTVSPropertyOp0
 70
     1
102
RTVSPropertyOp1
 70
     1
102
RTVSPropertyOp2
 70
     1
102
RTVSPropertyOp3
 70
     1
102
RTVSPropertyOp4
 70
     1
102
RTVSPropertyOp5
 70
     1
102
RTVSPropertyOp6
 70
     1
102
RTVSPropertyOp7
 70
     1
102
RTVSPropertyOp8
 70
     1
102
RTVSPropertyOp9
 70
     1
102
RTVSPropertyOp10
 70
     1
102
RTVSPropertyOp11
 70
     1
102
RTVSPropertyOp12
 70
     1
102
RTVSPropertyOp13
 70
     1
102
RTVSPropertyOp14
 70
     1
102
RTVSPropertyOp15
 70
     1
102
RTVSPropertyOp16
 70
     1
102
RTVSPropertyOp17
 70
     1
102
RTVSPropertyOp18
 70
     1
102
RTVSPropertyOp19
 70
     1
102
RTVSPropertyOp20
 70
     1
102
RTVSPropertyOp21
 70
     1
102
RTVSPropertyOp22
 70
     1
102
RTVSPropertyOp23
 70
     1
102
RTVSPropertyOp24
 70
     1
102
RTVSPropertyOp25
 70
     1
102
RTVSPropertyOp26
 70
     1
102
RTVSPropertyOp27
 70
     1
102
RTVSPropertyOp28
 70
     1
102
RTVSPropertyOp29
 70
     1
102
RTVSPropertyOp30
 70
     1
102
RTVSPropertyOp31
 70
     1
102
RTVSPropertyOp32
 70
     1
102
RTVSPropertyOp33
 70
     1
102
RTVSPropertyOp34
 70
     1
102
RTVSPropertyOp35
 70
     1
102
RTVSPropertyOp36
 70
     1
102
RTVSPropertyOp37
 70
     1
102
RTVSPropertyOp38
 70
     1
102
RTVSPropertyOp39
 70
     1
102
RTVSPropertyOp40
 70
     1
102
RTVSPropertyOp41
 70
     1
102
RTVSPropertyOp42
 70
     1
102
RTVSPropertyOp43
 70
     1
102
RTVSPropertyOp44
 70
     1
102
RTVSPropertyOp45
 70
     1
102
RTVSPropertyOp46
 70
     1
102
RTVSPropertyOp47
 70
     1
102
RTVSPropertyOp48
 70
     1
102
RTVSPropertyOp49
 70
     1
102
RTVSPropertyOp50
 70
     1
102
RTVSPropertyOp51
 70
     0
102
RTVSPropertyOp52
 70
     0
102
RTVSPropertyOp53
 70
     1
102
RTVSPropertyOp54
 70
     1
102
RTVSPropertyOp55
 70
     1
102
RTVSPropertyOp56
 70
     1
102
RTVSPropertyOp57
 70
     1
102
RTVSPost2010Prop28
280
     0
102
RTVSPost2010PropOp28
 70
     1
102
RTVSPost2010Prop29
280
     1
102
RTVSPost2010PropOp29
 70
     1
102
RTVSPost2010Prop30
280
     1
102
RTVSPost2010PropOp30
 70
     1
102
RTVSPost2010Prop31
280
     0
102
RTVSPost2010PropOp31
 70
     1
102
RTVSPost2010Prop32
280
     0
102
RTVSPost2010PropOp32
 70
     1
102
RTVSPost2010Prop33
280
     0
102
RTVSPost2010PropOp33
 70
     1
102
RTVSPost2010Prop34
280
     0
102
RTVSPost2010PropOp34
 70
     1
102
RTVSPost2010Prop35
280
     0
102
RTVSPost2010PropOp35
 70
     1
102
RTVSPost2010Prop36
280
     0
102
RTVSPost2010PropOp36
 70
     1
102
RTVSPost2010Prop37
 90
       50
102
RTVSPost2010PropOp37
 70
     1
102
RTVSPost2010Prop38
140
0.0
102
RTVSPost2010PropOp38
 70
     1
102
RTVSPost2010Prop39
140
1.0
102
RTVSPost2010PropOp39
 70
     1
102
RTVSPost2010Prop40
 90
        0
102
RTVSPost2010PropOp40
 70
     1
102
RTVSPost2010Prop41ColorIndex
 90
       18
102
RTVSPost2010Prop41ColorRGB
 90
        0
102
RTVSPost2010PropOp41
 70
     1
102
RTVSPost2010Prop42
 90
       50
102
RTVSPost2010PropOp42
 70
     1
102
RTVSPost2010Prop43
 90
        3
102
RTVSPost2010PropOp43
 70
     1
102
RTVSPost2010Prop44ColorIndex
 90
        5
102
RTVSPost2010Prop44ColorRGB
 90
      255
102
RTVSPost2010PropOp44
 70
     1
102
RTVSPost2010Prop45
280
     0
102
RTVSPost2010PropOp45
 70
     1
102
RTVSPost2010Prop46
 90
       50
102
RTVSPost2010PropOp46
 70
     1
102
RTVSPost2010Prop47
 90
       50
102
RTVSPost2010PropOp47
 70
     1
102
RTVSPost2010Prop48
 90
       50
102
RTVSPost2010PropOp48
 70
     1
102
RTVSPost2010Prop49
280
     0
102
RTVSPost2010PropOp49
 70
     1
102
RTVSPost2010Prop50
 90
       50
102
RTVSPost2010PropOp50
 70
     1
102
RTVSPost2010Prop51ColorIndex
 90
      256
102
RTVSPost2010Prop51ColorRGB
 90
-16777216
102
RTVSPost2010PropOp51
 70
     0
102
RTVSPost2010Prop52
140
1.0
102
RTVSPost2010PropOp52
 70
     0
102
RTVSPost2010Prop53
 90
        2
102
RTVSPost2010PropOp53
 70
     1
102
RTVSPost2010Prop54
  1
strokes_ogs.tif
102
RTVSPost2010PropOp54
 70
     1
102
RTVSPost2010Prop55
280
     0
102
RTVSPost2010PropOp55
 70
     1
102
RTVSPost2010Prop56
140
1.0
102
RTVSPost2010PropOp56
 70
     1
102
RTVSPost2010Prop57
140
1.0
102
RTVSPost2010PropOp57
 70
     1
  0
XRECORD
  5
2C1
102
{ACAD_REACTORS
330
2C0
102
}
330
2C0
100
AcDbXrecord
280
     1
102
RTVSPropertyOp0
 70
     0
102
RTVSPropertyOp1
 70
     0
102
RTVSPropertyOp2
 70
     0
102
RTVSPropertyOp3
 70
     0
102
RTVSPropertyOp4
 70
     0
102
RTVSPropertyOp5
 70
     0
102
RTVSPropertyOp6
 70
     0
102
RTVSPropertyOp7
 70
     0
102
RTVSPropertyOp8
 70
     0
102
RTVSPropertyOp9
 70
     0
102
RTVSPropertyOp10
 70
     0
102
RTVSPropertyOp11
 70
     0
102
RTVSPropertyOp12
 70
     0
102
RTVSPropertyOp13
 70
     0
102
RTVSPropertyOp14
 70
     2
102
RTVSPropertyOp15
 70
     0
102
RTVSPropertyOp16
 70
     0
102
RTVSPropertyOp17
 70
     0
102
RTVSPropertyOp18
 70
     0
102
RTVSPropertyOp19
 70
     0
102
RTVSPropertyOp20
 70
     0
102
RTVSPropertyOp21
 70
     0
102
RTVSPropertyOp22
 70
     0
102
RTVSPropertyOp23
 70
     0
102
RTVSPropertyOp24
 70
     0
102
RTVSPropertyOp25
 70
     0
102
RTVSPropertyOp26
 70
     0
102
RTVSPropertyOp27
 70
     0
102
RTVSPropertyOp28
 70
     0
102
RTVSPropertyOp29
 70
     0
102
RTVSPropertyOp30
 70
     0
102
RTVSPropertyOp31
 70
     0
102
RTVSPropertyOp32
 70
     0
102
RTVSPropertyOp33
 70
     0
102
RTVSPropertyOp34
 70
     0
102
RTVSPropertyOp35
 70
     0
102
RTVSPropertyOp36
 70
     0
102
RTVSPropertyOp37
 70
     0
102
RTVSPropertyOp38
 70
     0
102
RTVSPropertyOp39
 70
     0
102
RTVSPropertyOp40
 70
     0
102
RTVSPropertyOp41
 70
     0
102
RTVSPropertyOp42
 70
     0
102
RTVSPropertyOp43
 70
     0
102
RTVSPropertyOp44
 70
     0
102
RTVSPropertyOp45
 70
     0
102
RTVSPropertyOp46
 70
     0
102
RTVSPropertyOp47
 70
     0
102
RTVSPropertyOp48
 70
     0
102
RTVSPropertyOp49
 70
     0
102
RTVSPropertyOp50
 70
     0
102
RTVSPropertyOp51
 70
     0
102
RTVSPropertyOp52
 70
     0
102
RTVSPropertyOp53
 70
     0
102
RTVSPropertyOp54
 70
     0
102
RTVSPropertyOp55
 70
     0
102
RTVSPropertyOp56
 70
     0
102
RTVSPropertyOp57
 70
     0
102
RTVSPost2010Prop28
280
     0
102
RTVSPost2010PropOp28
 70
     0
102
RTVSPost2010Prop29
280
     1
102
RTVSPost2010PropOp29
 70
     0
102
RTVSPost2010Prop30
280
     1
102
RTVSPost2010PropOp30
 70
     0
102
RTVSPost2010Prop31
280
     0
102
RTVSPost2010PropOp31
 70
     0
102
RTVSPost2010Prop32
280
     0
102
RTVSPost2010PropOp32
 70
     0
102
RTVSPost2010Prop33
280
     0
102
RTVSPost2010PropOp33
 70
     0
102
RTVSPost2010Prop34
280
     0
102
RTVSPost2010PropOp34
 70
     0
102
RTVSPost2010Prop35
280
     0
102
RTVSPost2010PropOp35
 70
     0
102
RTVSPost2010Prop36
280
     0
102
RTVSPost2010PropOp36
 70
     0
102
RTVSPost2010Prop37
 90
       50
102
RTVSPost2010PropOp37
 70
     0
102
RTVSPost2010Prop38
140
0.0
102
RTVSPost2010PropOp38
 70
     0
102
RTVSPost2010Prop39
140
1.0
102
RTVSPost2010PropOp39
 70
     0
102
RTVSPost2010Prop40
 90
        0
102
RTVSPost2010PropOp40
 70
     0
102
RTVSPost2010Prop41ColorIndex
 90
       18
102
RTVSPost2010Prop41ColorRGB
 90
        0
102
RTVSPost2010PropOp41
 70
     0
102
RTVSPost2010Prop42
 90
       50
102
RTVSPost2010PropOp42
 70
     0
102
RTVSPost2010Prop43
 90
        3
102
RTVSPost2010PropOp43
 70
     0
102
RTVSPost2010Prop44ColorIndex
 90
        5
102
RTVSPost2010Prop44ColorRGB
 90
      255
102
RTVSPost2010PropOp44
 70
     0
102
RTVSPost2010Prop45
280
     0
102
RTVSPost2010PropOp45
 70
     0
102
RTVSPost2010Prop46
 90
       50
102
RTVSPost2010PropOp46
 70
     0
102
RTVSPost2010Prop47
 90
       50
102
RTVSPost2010PropOp47
 70
     0
102
RTVSPost2010Prop48
 90
       50
102
RTVSPost2010PropOp48
 70
     0
102
RTVSPost2010Prop49
280
     0
102
RTVSPost2010PropOp49
 70
     0
102
RTVSPost2010Prop50
 90
       50
102
RTVSPost2010PropOp50
 70
     0
102
RTVSPost2010Prop51ColorIndex
 90
      256
102
RTVSPost2010Prop51ColorRGB
 90
-16777216
102
RTVSPost2010PropOp51
 70
     0
102
RTVSPost2010Prop52
140
1.0
102
RTVSPost2010PropOp52
 70
     0
102
RTVSPost2010Prop53
 90
        2
102
RTVSPost2010PropOp53
 70
     0
102
RTVSPost2010Prop54
  1
strokes_ogs.tif
102
RTVSPost2010PropOp54
 70
     0
102
RTVSPost2010Prop55
280
     0
102
RTVSPost2010PropOp55
 70
     0
102
RTVSPost2010Prop56
140
1.0
102
RTVSPost2010PropOp56
 70
     0
102
RTVSPost2010Prop57
140
1.0
102
RTVSPost2010PropOp57
 70
     0
  0
XRECORD
  5
2B9
102
{ACAD_REACTORS
330
2B8
102
}
330
2B8
100
AcDbXrecord
280
     1
102
RTVSPropertyOp0
 70
     1
102
RTVSPropertyOp1
 70
     1
102
RTVSPropertyOp2
 70
     1
102
RTVSPropertyOp3
 70
     1
102
RTVSPropertyOp4
 70
     1
102
RTVSPropertyOp5
 70
     1
102
RTVSPropertyOp6
 70
     1
102
RTVSPropertyOp7
 70
     1
102
RTVSPropertyOp8
 70
     1
102
RTVSPropertyOp9
 70
     1
102
RTVSPropertyOp10
 70
     1
102
RTVSPropertyOp11
 70
     1
102
RTVSPropertyOp12
 70
     1
102
RTVSPropertyOp13
 70
     1
102
RTVSPropertyOp14
 70
     1
102
RTVSPropertyOp15
 70
     1
102
RTVSPropertyOp16
 70
     1
102
RTVSPropertyOp17
 70
     1
102
RTVSPropertyOp18
 70
     1
102
RTVSPropertyOp19
 70
     1
102
RTVSPropertyOp20
 70
     1
102
RTVSPropertyOp21
 70
     1
102
RTVSPropertyOp22
 70
     1
102
RTVSPropertyOp23
 70
     1
102
RTVSPropertyOp24
 70
     1
102
RTVSPropertyOp25
 70
     1
102
RTVSPropertyOp26
 70
     1
102
RTVSPropertyOp27
 70
     1
102
RTVSPropertyOp28
 70
     1
102
RTVSPropertyOp29
 70
     1
102
RTVSPropertyOp30
 70
     1
102
RTVSPropertyOp31
 70
     1
102
RTVSPropertyOp32
 70
     1
102
RTVSPropertyOp33
 70
     1
102
RTVSPropertyOp34
 70
     1
102
RTVSPropertyOp35
 70
     1
102
RTVSPropertyOp36
 70
     1
102
RTVSPropertyOp37
 70
     1
102
RTVSPropertyOp38
 70
     1
102
RTVSPropertyOp39
 70
     1
102
RTVSPropertyOp40
 70
     1
102
RTVSPropertyOp41
 70
     1
102
RTVSPropertyOp42
 70
     1
102
RTVSPropertyOp43
 70
     1
102
RTVSPropertyOp44
 70
     1
102
RTVSPropertyOp45
 70
     1
102
RTVSPropertyOp46
 70
     1
102
RTVSPropertyOp47
 70
     1
102
RTVSPropertyOp48
 70
     1
102
RTVSPropertyOp49
 70
     1
102
RTVSPropertyOp50
 70
     1
102
RTVSPropertyOp51
 70
     0
102
RTVSPropertyOp52
 70
     0
102
RTVSPropertyOp53
 70
     1
102
RTVSPropertyOp54
 70
     1
102
RTVSPropertyOp55
 70
     1
102
RTVSPropertyOp56
 70
     1
102
RTVSPropertyOp57
 70
     1
102
RTVSPost2010Prop28
280
     0
102
RTVSPost2010PropOp28
 70
     1
102
RTVSPost2010Prop29
280
     1
102
RTVSPost2010PropOp29
 70
     1
102
RTVSPost2010Prop30
280
     1
102
RTVSPost2010PropOp30
 70
     1
102
RTVSPost2010Prop31
280
     0
102
RTVSPost2010PropOp31
 70
     1
102
RTVSPost2010Prop32
280
     0
102
RTVSPost2010PropOp32
 70
     1
102
RTVSPost2010Prop33
280
     0
102
RTVSPost2010PropOp33
 70
     1
102
RTVSPost2010Prop34
280
     0
102
RTVSPost2010PropOp34
 70
     1
102
RTVSPost2010Prop35
280
     0
102
RTVSPost2010PropOp35
 70
     1
102
RTVSPost2010Prop36
280
     0
102
RTVSPost2010PropOp36
 70
     1
102
RTVSPost2010Prop37
 90
       50
102
RTVSPost2010PropOp37
 70
     1
102
RTVSPost2010Prop38
140
0.0
102
RTVSPost2010PropOp38
 70
     1
102
RTVSPost2010Prop39
140
1.0
102
RTVSPost2010PropOp39
 70
     1
102
RTVSPost2010Prop40
 90
        0
102
RTVSPost2010PropOp40
 70
     1
102
RTVSPost2010Prop41ColorIndex
 90
       18
102
RTVSPost2010Prop41ColorRGB
 90
        0
102
RTVSPost2010PropOp41
 70
     1
102
RTVSPost2010Prop42
 90
       50
102
RTVSPost2010PropOp42
 70
     1
102
RTVSPost2010Prop43
 90
        3
102
RTVSPost2010PropOp43
 70
     1
102
RTVSPost2010Prop44ColorIndex
 90
        5
102
RTVSPost2010Prop44ColorRGB
 90
      255
102
RTVSPost2010PropOp44
 70
     1
102
RTVSPost2010Prop45
280
     0
102
RTVSPost2010PropOp45
 70
     1
102
RTVSPost2010Prop46
 90
       50
102
RTVSPost2010PropOp46
 70
     1
102
RTVSPost2010Prop47
 90
       50
102
RTVSPost2010PropOp47
 70
     1
102
RTVSPost2010Prop48
 90
       50
102
RTVSPost2010PropOp48
 70
     1
102
RTVSPost2010Prop49
280
     0
102
RTVSPost2010PropOp49
 70
     1
102
RTVSPost2010Prop50
 90
       50
102
RTVSPost2010PropOp50
 70
     1
102
RTVSPost2010Prop51ColorIndex
 90
      256
102
RTVSPost2010Prop51ColorRGB
 90
-16777216
102
RTVSPost2010PropOp51
 70
     0
102
RTVSPost2010Prop52
140
1.0
102
RTVSPost2010PropOp52
 70
     0
102
RTVSPost2010Prop53
 90
        2
102
RTVSPost2010PropOp53
 70
     1
102
RTVSPost2010Prop54
  1
strokes_ogs.tif
102
RTVSPost2010PropOp54
 70
     1
102
RTVSPost2010Prop55
280
     0
102
RTVSPost2010PropOp55
 70
     1
102
RTVSPost2010Prop56
140
1.0
102
RTVSPost2010PropOp56
 70
     1
102
RTVSPost2010Prop57
140
1.0
102
RTVSPost2010PropOp57
 70
     1
  0
XRECORD
  5
29D
102
{ACAD_REACTORS
330
29C
102
}
330
29C
100
AcDbXrecord
280
     1
102
RTVSPropertyOp0
 70
     1
102
RTVSPropertyOp1
 70
     1
102
RTVSPropertyOp2
 70
     1
102
RTVSPropertyOp3
 70
     1
102
RTVSPropertyOp4
 70
     1
102
RTVSPropertyOp5
 70
     1
102
RTVSPropertyOp6
 70
     1
102
RTVSPropertyOp7
 70
     1
102
RTVSPropertyOp8
 70
     1
102
RTVSPropertyOp9
 70
     1
102
RTVSPropertyOp10
 70
     1
102
RTVSPropertyOp11
 70
     1
102
RTVSPropertyOp12
 70
     1
102
RTVSPropertyOp13
 70
     1
102
RTVSPropertyOp14
 70
     1
102
RTVSPropertyOp15
 70
     1
102
RTVSPropertyOp16
 70
     1
102
RTVSPropertyOp17
 70
     1
102
RTVSPropertyOp18
 70
     1
102
RTVSPropertyOp19
 70
     1
102
RTVSPropertyOp20
 70
     1
102
RTVSPropertyOp21
 70
     1
102
RTVSPropertyOp22
 70
     1
102
RTVSPropertyOp23
 70
     1
102
RTVSPropertyOp24
 70
     1
102
RTVSPropertyOp25
 70
     1
102
RTVSPropertyOp26
 70
     1
102
RTVSPropertyOp27
 70
     1
102
RTVSPropertyOp28
 70
     1
102
RTVSPropertyOp29
 70
     1
102
RTVSPropertyOp30
 70
     1
102
RTVSPropertyOp31
 70
     1
102
RTVSPropertyOp32
 70
     1
102
RTVSPropertyOp33
 70
     1
102
RTVSPropertyOp34
 70
     1
102
RTVSPropertyOp35
 70
     1
102
RTVSPropertyOp36
 70
     1
102
RTVSPropertyOp37
 70
     1
102
RTVSPropertyOp38
 70
     1
102
RTVSPropertyOp39
 70
     1
102
RTVSPropertyOp40
 70
     1
102
RTVSPropertyOp41
 70
     1
102
RTVSPropertyOp42
 70
     1
102
RTVSPropertyOp43
 70
     1
102
RTVSPropertyOp44
 70
     1
102
RTVSPropertyOp45
 70
     1
102
RTVSPropertyOp46
 70
     1
102
RTVSPropertyOp47
 70
     1
102
RTVSPropertyOp48
 70
     1
102
RTVSPropertyOp49
 70
     1
102
RTVSPropertyOp50
 70
     1
102
RTVSPropertyOp51
 70
     0
102
RTVSPropertyOp52
 70
     0
102
RTVSPropertyOp53
 70
     1
102
RTVSPropertyOp54
 70
     1
102
RTVSPropertyOp55
 70
     1
102
RTVSPropertyOp56
 70
     1
102
RTVSPropertyOp57
 70
     1
102
RTVSPost2010Prop28
280
     0
102
RTVSPost2010PropOp28
 70
     1
102
RTVSPost2010Prop29
280
     1
102
RTVSPost2010PropOp29
 70
     1
102
RTVSPost2010Prop30
280
     1
102
RTVSPost2010PropOp30
 70
     1
102
RTVSPost2010Prop31
280
     0
102
RTVSPost2010PropOp31
 70
     1
102
RTVSPost2010Prop32
280
     0
102
RTVSPost2010PropOp32
 70
     1
102
RTVSPost2010Prop33
280
     0
102
RTVSPost2010PropOp33
 70
     1
102
RTVSPost2010Prop34
280
     0
102
RTVSPost2010PropOp34
 70
     1
102
RTVSPost2010Prop35
280
     0
102
RTVSPost2010PropOp35
 70
     1
102
RTVSPost2010Prop36
280
     0
102
RTVSPost2010PropOp36
 70
     1
102
RTVSPost2010Prop37
 90
       50
102
RTVSPost2010PropOp37
 70
     1
102
RTVSPost2010Prop38
140
0.0
102
RTVSPost2010PropOp38
 70
     1
102
RTVSPost2010Prop39
140
1.0
102
RTVSPost2010PropOp39
 70
     1
102
RTVSPost2010Prop40
 90
        0
102
RTVSPost2010PropOp40
 70
     1
102
RTVSPost2010Prop41ColorIndex
 90
       18
102
RTVSPost2010Prop41ColorRGB
 90
        0
102
RTVSPost2010PropOp41
 70
     1
102
RTVSPost2010Prop42
 90
       50
102
RTVSPost2010PropOp42
 70
     1
102
RTVSPost2010Prop43
 90
        3
102
RTVSPost2010PropOp43
 70
     1
102
RTVSPost2010Prop44ColorIndex
 90
        5
102
RTVSPost2010Prop44ColorRGB
 90
      255
102
RTVSPost2010PropOp44
 70
     1
102
RTVSPost2010Prop45
280
     0
102
RTVSPost2010PropOp45
 70
     1
102
RTVSPost2010Prop46
 90
       50
102
RTVSPost2010PropOp46
 70
     1
102
RTVSPost2010Prop47
 90
       50
102
RTVSPost2010PropOp47
 70
     1
102
RTVSPost2010Prop48
 90
       50
102
RTVSPost2010PropOp48
 70
     1
102
RTVSPost2010Prop49
280
     0
102
RTVSPost2010PropOp49
 70
     1
102
RTVSPost2010Prop50
 90
       50
102
RTVSPost2010PropOp50
 70
     1
102
RTVSPost2010Prop51ColorIndex
 90
      256
102
RTVSPost2010Prop51ColorRGB
 90
-16777216
102
RTVSPost2010PropOp51
 70
     0
102
RTVSPost2010Prop52
140
1.0
102
RTVSPost2010PropOp52
 70
     0
102
RTVSPost2010Prop53
 90
        2
102
RTVSPost2010PropOp53
 70
     1
102
RTVSPost2010Prop54
  1
strokes_ogs.tif
102
RTVSPost2010PropOp54
 70
     1
102
RTVSPost2010Prop55
280
     0
102
RTVSPost2010PropOp55
 70
     1
102
RTVSPost2010Prop56
140
1.0
102
RTVSPost2010PropOp56
 70
     1
102
RTVSPost2010Prop57
140
1.0
102
RTVSPost2010PropOp57
 70
     1
  0
XRECORD
  5
29F
102
{ACAD_REACTORS
330
29E
102
}
330
29E
100
AcDbXrecord
280
     1
102
RTVSPropertyOp0
 70
     1
102
RTVSPropertyOp1
 70
     1
102
RTVSPropertyOp2
 70
     1
102
RTVSPropertyOp3
 70
     1
102
RTVSPropertyOp4
 70
     1
102
RTVSPropertyOp5
 70
     1
102
RTVSPropertyOp6
 70
     1
102
RTVSPropertyOp7
 70
     1
102
RTVSPropertyOp8
 70
     1
102
RTVSPropertyOp9
 70
     1
102
RTVSPropertyOp10
 70
     1
102
RTVSPropertyOp11
 70
     1
102
RTVSPropertyOp12
 70
     1
102
RTVSPropertyOp13
 70
     1
102
RTVSPropertyOp14
 70
     1
102
RTVSPropertyOp15
 70
     1
102
RTVSPropertyOp16
 70
     1
102
RTVSPropertyOp17
 70
     1
102
RTVSPropertyOp18
 70
     1
102
RTVSPropertyOp19
 70
     1
102
RTVSPropertyOp20
 70
     1
102
RTVSPropertyOp21
 70
     1
102
RTVSPropertyOp22
 70
     1
102
RTVSPropertyOp23
 70
     1
102
RTVSPropertyOp24
 70
     1
102
RTVSPropertyOp25
 70
     1
102
RTVSPropertyOp26
 70
     1
102
RTVSPropertyOp27
 70
     1
102
RTVSPropertyOp28
 70
     1
102
RTVSPropertyOp29
 70
     1
102
RTVSPropertyOp30
 70
     1
102
RTVSPropertyOp31
 70
     1
102
RTVSPropertyOp32
 70
     1
102
RTVSPropertyOp33
 70
     1
102
RTVSPropertyOp34
 70
     1
102
RTVSPropertyOp35
 70
     1
102
RTVSPropertyOp36
 70
     1
102
RTVSPropertyOp37
 70
     1
102
RTVSPropertyOp38
 70
     1
102
RTVSPropertyOp39
 70
     1
102
RTVSPropertyOp40
 70
     1
102
RTVSPropertyOp41
 70
     1
102
RTVSPropertyOp42
 70
     1
102
RTVSPropertyOp43
 70
     1
102
RTVSPropertyOp44
 70
     1
102
RTVSPropertyOp45
 70
     1
102
RTVSPropertyOp46
 70
     1
102
RTVSPropertyOp47
 70
     1
102
RTVSPropertyOp48
 70
     1
102
RTVSPropertyOp49
 70
     1
102
RTVSPropertyOp50
 70
     1
102
RTVSPropertyOp51
 70
     0
102
RTVSPropertyOp52
 70
     0
102
RTVSPropertyOp53
 70
     1
102
RTVSPropertyOp54
 70
     1
102
RTVSPropertyOp55
 70
     1
102
RTVSPropertyOp56
 70
     1
102
RTVSPropertyOp57
 70
     1
102
RTVSPost2010Prop28
280
     0
102
RTVSPost2010PropOp28
 70
     1
102
RTVSPost2010Prop29
280
     1
102
RTVSPost2010PropOp29
 70
     1
102
RTVSPost2010Prop30
280
     1
102
RTVSPost2010PropOp30
 70
     1
102
RTVSPost2010Prop31
280
     0
102
RTVSPost2010PropOp31
 70
     1
102
RTVSPost2010Prop32
280
     0
102
RTVSPost2010PropOp32
 70
     1
102
RTVSPost2010Prop33
280
     0
102
RTVSPost2010PropOp33
 70
     1
102
RTVSPost2010Prop34
280
     0
102
RTVSPost2010PropOp34
 70
     1
102
RTVSPost2010Prop35
280
     0
102
RTVSPost2010PropOp35
 70
     1
102
RTVSPost2010Prop36
280
     0
102
RTVSPost2010PropOp36
 70
     1
102
RTVSPost2010Prop37
 90
       50
102
RTVSPost2010PropOp37
 70
     1
102
RTVSPost2010Prop38
140
0.0
102
RTVSPost2010PropOp38
 70
     1
102
RTVSPost2010Prop39
140
1.0
102
RTVSPost2010PropOp39
 70
     1
102
RTVSPost2010Prop40
 90
        0
102
RTVSPost2010PropOp40
 70
     1
102
RTVSPost2010Prop41ColorIndex
 90
       18
102
RTVSPost2010Prop41ColorRGB
 90
        0
102
RTVSPost2010PropOp41
 70
     1
102
RTVSPost2010Prop42
 90
       50
102
RTVSPost2010PropOp42
 70
     1
102
RTVSPost2010Prop43
 90
        3
102
RTVSPost2010PropOp43
 70
     1
102
RTVSPost2010Prop44ColorIndex
 90
        5
102
RTVSPost2010Prop44ColorRGB
 90
      255
102
RTVSPost2010PropOp44
 70
     1
102
RTVSPost2010Prop45
280
     0
102
RTVSPost2010PropOp45
 70
     1
102
RTVSPost2010Prop46
 90
       50
102
RTVSPost2010PropOp46
 70
     1
102
RTVSPost2010Prop47
 90
       50
102
RTVSPost2010PropOp47
 70
     1
102
RTVSPost2010Prop48
 90
       50
102
RTVSPost2010PropOp48
 70
     1
102
RTVSPost2010Prop49
280
     0
102
RTVSPost2010PropOp49
 70
     1
102
RTVSPost2010Prop50
 90
       50
102
RTVSPost2010PropOp50
 70
     1
102
RTVSPost2010Prop51ColorIndex
 90
      256
102
RTVSPost2010Prop51ColorRGB
 90
-16777216
102
RTVSPost2010PropOp51
 70
     0
102
RTVSPost2010Prop52
140
1.0
102
RTVSPost2010PropOp52
 70
     0
102
RTVSPost2010Prop53
 90
        2
102
RTVSPost2010PropOp53
 70
     1
102
RTVSPost2010Prop54
  1
strokes_ogs.tif
102
RTVSPost2010PropOp54
 70
     1
102
RTVSPost2010Prop55
280
     0
102
RTVSPost2010PropOp55
 70
     1
102
RTVSPost2010Prop56
140
1.0
102
RTVSPost2010PropOp56
 70
     1
102
RTVSPost2010Prop57
140
1.0
102
RTVSPost2010PropOp57
 70
     1
  0
XRECORD
  5
2A1
102
{ACAD_REACTORS
330
2A0
102
}
330
2A0
100
AcDbXrecord
280
     1
102
RTVSPropertyOp0
 70
     1
102
RTVSPropertyOp1
 70
     1
102
RTVSPropertyOp2
 70
     1
102
RTVSPropertyOp3
 70
     1
102
RTVSPropertyOp4
 70
     1
102
RTVSPropertyOp5
 70
     1
102
RTVSPropertyOp6
 70
     1
102
RTVSPropertyOp7
 70
     1
102
RTVSPropertyOp8
 70
     1
102
RTVSPropertyOp9
 70
     1
102
RTVSPropertyOp10
 70
     1
102
RTVSPropertyOp11
 70
     1
102
RTVSPropertyOp12
 70
     1
102
RTVSPropertyOp13
 70
     1
102
RTVSPropertyOp14
 70
     1
102
RTVSPropertyOp15
 70
     1
102
RTVSPropertyOp16
 70
     1
102
RTVSPropertyOp17
 70
     1
102
RTVSPropertyOp18
 70
     1
102
RTVSPropertyOp19
 70
     1
102
RTVSPropertyOp20
 70
     1
102
RTVSPropertyOp21
 70
     1
102
RTVSPropertyOp22
 70
     1
102
RTVSPropertyOp23
 70
     1
102
RTVSPropertyOp24
 70
     1
102
RTVSPropertyOp25
 70
     1
102
RTVSPropertyOp26
 70
     1
102
RTVSPropertyOp27
 70
     1
102
RTVSPropertyOp28
 70
     1
102
RTVSPropertyOp29
 70
     1
102
RTVSPropertyOp30
 70
     1
102
RTVSPropertyOp31
 70
     1
102
RTVSPropertyOp32
 70
     1
102
RTVSPropertyOp33
 70
     1
102
RTVSPropertyOp34
 70
     1
102
RTVSPropertyOp35
 70
     1
102
RTVSPropertyOp36
 70
     1
102
RTVSPropertyOp37
 70
     1
102
RTVSPropertyOp38
 70
     1
102
RTVSPropertyOp39
 70
     1
102
RTVSPropertyOp40
 70
     1
102
RTVSPropertyOp41
 70
     1
102
RTVSPropertyOp42
 70
     1
102
RTVSPropertyOp43
 70
     1
102
RTVSPropertyOp44
 70
     1
102
RTVSPropertyOp45
 70
     1
102
RTVSPropertyOp46
 70
     1
102
RTVSPropertyOp47
 70
     1
102
RTVSPropertyOp48
 70
     1
102
RTVSPropertyOp49
 70
     1
102
RTVSPropertyOp50
 70
     1
102
RTVSPropertyOp51
 70
     0
102
RTVSPropertyOp52
 70
     0
102
RTVSPropertyOp53
 70
     1
102
RTVSPropertyOp54
 70
     1
102
RTVSPropertyOp55
 70
     1
102
RTVSPropertyOp56
 70
     1
102
RTVSPropertyOp57
 70
     1
102
RTVSPost2010Prop28
280
     0
102
RTVSPost2010PropOp28
 70
     1
102
RTVSPost2010Prop29
280
     1
102
RTVSPost2010PropOp29
 70
     1
102
RTVSPost2010Prop30
280
     1
102
RTVSPost2010PropOp30
 70
     1
102
RTVSPost2010Prop31
280
     0
102
RTVSPost2010PropOp31
 70
     1
102
RTVSPost2010Prop32
280
     0
102
RTVSPost2010PropOp32
 70
     1
102
RTVSPost2010Prop33
280
     0
102
RTVSPost2010PropOp33
 70
     1
102
RTVSPost2010Prop34
280
     0
102
RTVSPost2010PropOp34
 70
     1
102
RTVSPost2010Prop35
280
     0
102
RTVSPost2010PropOp35
 70
     1
102
RTVSPost2010Prop36
280
     0
102
RTVSPost2010PropOp36
 70
     1
102
RTVSPost2010Prop37
 90
       50
102
RTVSPost2010PropOp37
 70
     1
102
RTVSPost2010Prop38
140
0.0
102
RTVSPost2010PropOp38
 70
     1
102
RTVSPost2010Prop39
140
1.0
102
RTVSPost2010PropOp39
 70
     1
102
RTVSPost2010Prop40
 90
        0
102
RTVSPost2010PropOp40
 70
     1
102
RTVSPost2010Prop41ColorIndex
 90
       18
102
RTVSPost2010Prop41ColorRGB
 90
        0
102
RTVSPost2010PropOp41
 70
     1
102
RTVSPost2010Prop42
 90
       50
102
RTVSPost2010PropOp42
 70
     1
102
RTVSPost2010Prop43
 90
        3
102
RTVSPost2010PropOp43
 70
     1
102
RTVSPost2010Prop44ColorIndex
 90
        5
102
RTVSPost2010Prop44ColorRGB
 90
      255
102
RTVSPost2010PropOp44
 70
     1
102
RTVSPost2010Prop45
280
     0
102
RTVSPost2010PropOp45
 70
     1
102
RTVSPost2010Prop46
 90
       50
102
RTVSPost2010PropOp46
 70
     1
102
RTVSPost2010Prop47
 90
       50
102
RTVSPost2010PropOp47
 70
     1
102
RTVSPost2010Prop48
 90
       50
102
RTVSPost2010PropOp48
 70
     1
102
RTVSPost2010Prop49
280
     0
102
RTVSPost2010PropOp49
 70
     1
102
RTVSPost2010Prop50
 90
       50
102
RTVSPost2010PropOp50
 70
     1
102
RTVSPost2010Prop51ColorIndex
 90
      256
102
RTVSPost2010Prop51ColorRGB
 90
-16777216
102
RTVSPost2010PropOp51
 70
     0
102
RTVSPost2010Prop52
140
1.0
102
RTVSPost2010PropOp52
 70
     0
102
RTVSPost2010Prop53
 90
        2
102
RTVSPost2010PropOp53
 70
     1
102
RTVSPost2010Prop54
  1
strokes_ogs.tif
102
RTVSPost2010PropOp54
 70
     1
102
RTVSPost2010Prop55
280
     0
102
RTVSPost2010PropOp55
 70
     1
102
RTVSPost2010Prop56
140
1.0
102
RTVSPost2010PropOp56
 70
     1
102
RTVSPost2010Prop57
140
1.0
102
RTVSPost2010PropOp57
 70
     1
  0
XRECORD
  5
2A3
102
{ACAD_REACTORS
330
2A2
102
}
330
2A2
100
AcDbXrecord
280
     1
102
RTVSPropertyOp0
 70
     1
102
RTVSPropertyOp1
 70
     1
102
RTVSPropertyOp2
 70
     1
102
RTVSPropertyOp3
 70
     1
102
RTVSPropertyOp4
 70
     1
102
RTVSPropertyOp5
 70
     1
102
RTVSPropertyOp6
 70
     1
102
RTVSPropertyOp7
 70
     1
102
RTVSPropertyOp8
 70
     1
102
RTVSPropertyOp9
 70
     1
102
RTVSPropertyOp10
 70
     1
102
RTVSPropertyOp11
 70
     1
102
RTVSPropertyOp12
 70
     1
102
RTVSPropertyOp13
 70
     1
102
RTVSPropertyOp14
 70
     1
102
RTVSPropertyOp15
 70
     1
102
RTVSPropertyOp16
 70
     1
102
RTVSPropertyOp17
 70
     1
102
RTVSPropertyOp18
 70
     1
102
RTVSPropertyOp19
 70
     1
102
RTVSPropertyOp20
 70
     1
102
RTVSPropertyOp21
 70
     1
102
RTVSPropertyOp22
 70
     1
102
RTVSPropertyOp23
 70
     1
102
RTVSPropertyOp24
 70
     1
102
RTVSPropertyOp25
 70
     1
102
RTVSPropertyOp26
 70
     1
102
RTVSPropertyOp27
 70
     1
102
RTVSPropertyOp28
 70
     1
102
RTVSPropertyOp29
 70
     1
102
RTVSPropertyOp30
 70
     1
102
RTVSPropertyOp31
 70
     1
102
RTVSPropertyOp32
 70
     1
102
RTVSPropertyOp33
 70
     1
102
RTVSPropertyOp34
 70
     1
102
RTVSPropertyOp35
 70
     1
102
RTVSPropertyOp36
 70
     1
102
RTVSPropertyOp37
 70
     1
102
RTVSPropertyOp38
 70
     1
102
RTVSPropertyOp39
 70
     1
102
RTVSPropertyOp40
 70
     1
102
RTVSPropertyOp41
 70
     1
102
RTVSPropertyOp42
 70
     1
102
RTVSPropertyOp43
 70
     1
102
RTVSPropertyOp44
 70
     1
102
RTVSPropertyOp45
 70
     1
102
RTVSPropertyOp46
 70
     1
102
RTVSPropertyOp47
 70
     1
102
RTVSPropertyOp48
 70
     1
102
RTVSPropertyOp49
 70
     1
102
RTVSPropertyOp50
 70
     1
102
RTVSPropertyOp51
 70
     0
102
RTVSPropertyOp52
 70
     0
102
RTVSPropertyOp53
 70
     1
102
RTVSPropertyOp54
 70
     1
102
RTVSPropertyOp55
 70
     1
102
RTVSPropertyOp56
 70
     1
102
RTVSPropertyOp57
 70
     1
102
RTVSPost2010Prop28
280
     0
102
RTVSPost2010PropOp28
 70
     1
102
RTVSPost2010Prop29
280
     1
102
RTVSPost2010PropOp29
 70
     1
102
RTVSPost2010Prop30
280
     1
102
RTVSPost2010PropOp30
 70
     1
102
RTVSPost2010Prop31
280
     0
102
RTVSPost2010PropOp31
 70
     1
102
RTVSPost2010Prop32
280
     0
102
RTVSPost2010PropOp32
 70
     1
102
RTVSPost2010Prop33
280
     0
102
RTVSPost2010PropOp33
 70
     1
102
RTVSPost2010Prop34
280
     0
102
RTVSPost2010PropOp34
 70
     1
102
RTVSPost2010Prop35
280
     0
102
RTVSPost2010PropOp35
 70
     1
102
RTVSPost2010Prop36
280
     0
102
RTVSPost2010PropOp36
 70
     1
102
RTVSPost2010Prop37
 90
       50
102
RTVSPost2010PropOp37
 70
     1
102
RTVSPost2010Prop38
140
0.0
102
RTVSPost2010PropOp38
 70
     1
102
RTVSPost2010Prop39
140
1.0
102
RTVSPost2010PropOp39
 70
     1
102
RTVSPost2010Prop40
 90
        0
102
RTVSPost2010PropOp40
 70
     1
102
RTVSPost2010Prop41ColorIndex
 90
       18
102
RTVSPost2010Prop41ColorRGB
 90
        0
102
RTVSPost2010PropOp41
 70
     1
102
RTVSPost2010Prop42
 90
       50
102
RTVSPost2010PropOp42
 70
     1
102
RTVSPost2010Prop43
 90
        3
102
RTVSPost2010PropOp43
 70
     1
102
RTVSPost2010Prop44ColorIndex
 90
        5
102
RTVSPost2010Prop44ColorRGB
 90
      255
102
RTVSPost2010PropOp44
 70
     1
102
RTVSPost2010Prop45
280
     0
102
RTVSPost2010PropOp45
 70
     1
102
RTVSPost2010Prop46
 90
       50
102
RTVSPost2010PropOp46
 70
     1
102
RTVSPost2010Prop47
 90
       50
102
RTVSPost2010PropOp47
 70
     1
102
RTVSPost2010Prop48
 90
       50
102
RTVSPost2010PropOp48
 70
     1
102
RTVSPost2010Prop49
280
     0
102
RTVSPost2010PropOp49
 70
     1
102
RTVSPost2010Prop50
 90
       50
102
RTVSPost2010PropOp50
 70
     1
102
RTVSPost2010Prop51ColorIndex
 90
      256
102
RTVSPost2010Prop51ColorRGB
 90
-16777216
102
RTVSPost2010PropOp51
 70
     0
102
RTVSPost2010Prop52
140
1.0
102
RTVSPost2010PropOp52
 70
     0
102
RTVSPost2010Prop53
 90
        2
102
RTVSPost2010PropOp53
 70
     1
102
RTVSPost2010Prop54
  1
strokes_ogs.tif
102
RTVSPost2010PropOp54
 70
     1
102
RTVSPost2010Prop55
280
     0
102
RTVSPost2010PropOp55
 70
     1
102
RTVSPost2010Prop56
140
1.0
102
RTVSPost2010PropOp56
 70
     1
102
RTVSPost2010Prop57
140
1.0
102
RTVSPost2010PropOp57
 70
     1
  0
XRECORD
  5
2A9
102
{ACAD_REACTORS
330
2A8
102
}
330
2A8
100
AcDbXrecord
280
     1
102
RTVSPropertyOp0
 70
     1
102
RTVSPropertyOp1
 70
     1
102
RTVSPropertyOp2
 70
     1
102
RTVSPropertyOp3
 70
     1
102
RTVSPropertyOp4
 70
     1
102
RTVSPropertyOp5
 70
     1
102
RTVSPropertyOp6
 70
     1
102
RTVSPropertyOp7
 70
     1
102
RTVSPropertyOp8
 70
     1
102
RTVSPropertyOp9
 70
     1
102
RTVSPropertyOp10
 70
     1
102
RTVSPropertyOp11
 70
     1
102
RTVSPropertyOp12
 70
     1
102
RTVSPropertyOp13
 70
     1
102
RTVSPropertyOp14
 70
     1
102
RTVSPropertyOp15
 70
     1
102
RTVSPropertyOp16
 70
     1
102
RTVSPropertyOp17
 70
     1
102
RTVSPropertyOp18
 70
     1
102
RTVSPropertyOp19
 70
     1
102
RTVSPropertyOp20
 70
     1
102
RTVSPropertyOp21
 70
     1
102
RTVSPropertyOp22
 70
     1
102
RTVSPropertyOp23
 70
     1
102
RTVSPropertyOp24
 70
     1
102
RTVSPropertyOp25
 70
     1
102
RTVSPropertyOp26
 70
     1
102
RTVSPropertyOp27
 70
     1
102
RTVSPropertyOp28
 70
     1
102
RTVSPropertyOp29
 70
     1
102
RTVSPropertyOp30
 70
     1
102
RTVSPropertyOp31
 70
     1
102
RTVSPropertyOp32
 70
     1
102
RTVSPropertyOp33
 70
     1
102
RTVSPropertyOp34
 70
     1
102
RTVSPropertyOp35
 70
     1
102
RTVSPropertyOp36
 70
     1
102
RTVSPropertyOp37
 70
     1
102
RTVSPropertyOp38
 70
     1
102
RTVSPropertyOp39
 70
     1
102
RTVSPropertyOp40
 70
     1
102
RTVSPropertyOp41
 70
     1
102
RTVSPropertyOp42
 70
     1
102
RTVSPropertyOp43
 70
     1
102
RTVSPropertyOp44
 70
     1
102
RTVSPropertyOp45
 70
     1
102
RTVSPropertyOp46
 70
     1
102
RTVSPropertyOp47
 70
     1
102
RTVSPropertyOp48
 70
     1
102
RTVSPropertyOp49
 70
     1
102
RTVSPropertyOp50
 70
     1
102
RTVSPropertyOp51
 70
     0
102
RTVSPropertyOp52
 70
     0
102
RTVSPropertyOp53
 70
     1
102
RTVSPropertyOp54
 70
     1
102
RTVSPropertyOp55
 70
     1
102
RTVSPropertyOp56
 70
     1
102
RTVSPropertyOp57
 70
     1
102
RTVSPost2010Prop28
280
     0
102
RTVSPost2010PropOp28
 70
     1
102
RTVSPost2010Prop29
280
     1
102
RTVSPost2010PropOp29
 70
     1
102
RTVSPost2010Prop30
280
     1
102
RTVSPost2010PropOp30
 70
     1
102
RTVSPost2010Prop31
280
     0
102
RTVSPost2010PropOp31
 70
     1
102
RTVSPost2010Prop32
280
     0
102
RTVSPost2010PropOp32
 70
     1
102
RTVSPost2010Prop33
280
     0
102
RTVSPost2010PropOp33
 70
     1
102
RTVSPost2010Prop34
280
     0
102
RTVSPost2010PropOp34
 70
     1
102
RTVSPost2010Prop35
280
     0
102
RTVSPost2010PropOp35
 70
     1
102
RTVSPost2010Prop36
280
     0
102
RTVSPost2010PropOp36
 70
     1
102
RTVSPost2010Prop37
 90
       50
102
RTVSPost2010PropOp37
 70
     1
102
RTVSPost2010Prop38
140
0.0
102
RTVSPost2010PropOp38
 70
     1
102
RTVSPost2010Prop39
140
1.0
102
RTVSPost2010PropOp39
 70
     1
102
RTVSPost2010Prop40
 90
        0
102
RTVSPost2010PropOp40
 70
     1
102
RTVSPost2010Prop41ColorIndex
 90
       18
102
RTVSPost2010Prop41ColorRGB
 90
        0
102
RTVSPost2010PropOp41
 70
     1
102
RTVSPost2010Prop42
 90
       50
102
RTVSPost2010PropOp42
 70
     1
102
RTVSPost2010Prop43
 90
        3
102
RTVSPost2010PropOp43
 70
     1
102
RTVSPost2010Prop44ColorIndex
 90
        5
102
RTVSPost2010Prop44ColorRGB
 90
      255
102
RTVSPost2010PropOp44
 70
     1
102
RTVSPost2010Prop45
280
     0
102
RTVSPost2010PropOp45
 70
     1
102
RTVSPost2010Prop46
 90
       50
102
RTVSPost2010PropOp46
 70
     1
102
RTVSPost2010Prop47
 90
       50
102
RTVSPost2010PropOp47
 70
     1
102
RTVSPost2010Prop48
 90
       50
102
RTVSPost2010PropOp48
 70
     1
102
RTVSPost2010Prop49
280
     0
102
RTVSPost2010PropOp49
 70
     1
102
RTVSPost2010Prop50
 90
       50
102
RTVSPost2010PropOp50
 70
     1
102
RTVSPost2010Prop51ColorIndex
 90
      256
102
RTVSPost2010Prop51ColorRGB
 90
-16777216
102
RTVSPost2010PropOp51
 70
     0
102
RTVSPost2010Prop52
140
1.0
102
RTVSPost2010PropOp52
 70
     0
102
RTVSPost2010Prop53
 90
        2
102
RTVSPost2010PropOp53
 70
     1
102
RTVSPost2010Prop54
  1
strokes_ogs.tif
102
RTVSPost2010PropOp54
 70
     1
102
RTVSPost2010Prop55
280
     0
102
RTVSPost2010PropOp55
 70
     1
102
RTVSPost2010Prop56
140
1.0
102
RTVSPost2010PropOp56
 70
     1
102
RTVSPost2010Prop57
140
1.0
102
RTVSPost2010PropOp57
 70
     1
  0
XRECORD
  5
2BD
102
{ACAD_REACTORS
330
2BC
102
}
330
2BC
100
AcDbXrecord
280
     1
102
RTVSPropertyOp0
 70
     0
102
RTVSPropertyOp1
 70
     0
102
RTVSPropertyOp2
 70
     0
102
RTVSPropertyOp3
 70
     0
102
RTVSPropertyOp4
 70
     0
102
RTVSPropertyOp5
 70
     0
102
RTVSPropertyOp6
 70
     0
102
RTVSPropertyOp7
 70
     0
102
RTVSPropertyOp8
 70
     0
102
RTVSPropertyOp9
 70
     0
102
RTVSPropertyOp10
 70
     0
102
RTVSPropertyOp11
 70
     0
102
RTVSPropertyOp12
 70
     0
102
RTVSPropertyOp13
 70
     0
102
RTVSPropertyOp14
 70
     2
102
RTVSPropertyOp15
 70
     0
102
RTVSPropertyOp16
 70
     0
102
RTVSPropertyOp17
 70
     0
102
RTVSPropertyOp18
 70
     0
102
RTVSPropertyOp19
 70
     0
102
RTVSPropertyOp20
 70
     0
102
RTVSPropertyOp21
 70
     0
102
RTVSPropertyOp22
 70
     0
102
RTVSPropertyOp23
 70
     0
102
RTVSPropertyOp24
 70
     0
102
RTVSPropertyOp25
 70
     0
102
RTVSPropertyOp26
 70
     0
102
RTVSPropertyOp27
 70
     0
102
RTVSPropertyOp28
 70
     0
102
RTVSPropertyOp29
 70
     0
102
RTVSPropertyOp30
 70
     0
102
RTVSPropertyOp31
 70
     0
102
RTVSPropertyOp32
 70
     0
102
RTVSPropertyOp33
 70
     0
102
RTVSPropertyOp34
 70
     0
102
RTVSPropertyOp35
 70
     0
102
RTVSPropertyOp36
 70
     0
102
RTVSPropertyOp37
 70
     0
102
RTVSPropertyOp38
 70
     0
102
RTVSPropertyOp39
 70
     0
102
RTVSPropertyOp40
 70
     0
102
RTVSPropertyOp41
 70
     0
102
RTVSPropertyOp42
 70
     0
102
RTVSPropertyOp43
 70
     0
102
RTVSPropertyOp44
 70
     0
102
RTVSPropertyOp45
 70
     0
102
RTVSPropertyOp46
 70
     0
102
RTVSPropertyOp47
 70
     0
102
RTVSPropertyOp48
 70
     0
102
RTVSPropertyOp49
 70
     0
102
RTVSPropertyOp50
 70
     0
102
RTVSPropertyOp51
 70
     0
102
RTVSPropertyOp52
 70
     0
102
RTVSPropertyOp53
 70
     0
102
RTVSPropertyOp54
 70
     0
102
RTVSPropertyOp55
 70
     0
102
RTVSPropertyOp56
 70
     0
102
RTVSPropertyOp57
 70
     0
102
RTVSPost2010Prop28
280
     0
102
RTVSPost2010PropOp28
 70
     0
102
RTVSPost2010Prop29
280
     1
102
RTVSPost2010PropOp29
 70
     0
102
RTVSPost2010Prop30
280
     1
102
RTVSPost2010PropOp30
 70
     0
102
RTVSPost2010Prop31
280
     0
102
RTVSPost2010PropOp31
 70
     0
102
RTVSPost2010Prop32
280
     0
102
RTVSPost2010PropOp32
 70
     0
102
RTVSPost2010Prop33
280
     0
102
RTVSPost2010PropOp33
 70
     0
102
RTVSPost2010Prop34
280
     0
102
RTVSPost2010PropOp34
 70
     0
102
RTVSPost2010Prop35
280
     0
102
RTVSPost2010PropOp35
 70
     0
102
RTVSPost2010Prop36
280
     0
102
RTVSPost2010PropOp36
 70
     0
102
RTVSPost2010Prop37
 90
       50
102
RTVSPost2010PropOp37
 70
     0
102
RTVSPost2010Prop38
140
0.0
102
RTVSPost2010PropOp38
 70
     0
102
RTVSPost2010Prop39
140
1.0
102
RTVSPost2010PropOp39
 70
     0
102
RTVSPost2010Prop40
 90
        0
102
RTVSPost2010PropOp40
 70
     0
102
RTVSPost2010Prop41ColorIndex
 90
       18
102
RTVSPost2010Prop41ColorRGB
 90
        0
102
RTVSPost2010PropOp41
 70
     0
102
RTVSPost2010Prop42
 90
       50
102
RTVSPost2010PropOp42
 70
     0
102
RTVSPost2010Prop43
 90
        3
102
RTVSPost2010PropOp43
 70
     0
102
RTVSPost2010Prop44ColorIndex
 90
        5
102
RTVSPost2010Prop44ColorRGB
 90
      255
102
RTVSPost2010PropOp44
 70
     0
102
RTVSPost2010Prop45
280
     0
102
RTVSPost2010PropOp45
 70
     0
102
RTVSPost2010Prop46
 90
       50
102
RTVSPost2010PropOp46
 70
     0
102
RTVSPost2010Prop47
 90
       50
102
RTVSPost2010PropOp47
 70
     0
102
RTVSPost2010Prop48
 90
       50
102
RTVSPost2010PropOp48
 70
     0
102
RTVSPost2010Prop49
280
     0
102
RTVSPost2010PropOp49
 70
     0
102
RTVSPost2010Prop50
 90
       50
102
RTVSPost2010PropOp50
 70
     0
102
RTVSPost2010Prop51ColorIndex
 90
      256
102
RTVSPost2010Prop51ColorRGB
 90
-16777216
102
RTVSPost2010PropOp51
 70
     0
102
RTVSPost2010Prop52
140
1.0
102
RTVSPost2010PropOp52
 70
     0
102
RTVSPost2010Prop53
 90
        2
102
RTVSPost2010PropOp53
 70
     0
102
RTVSPost2010Prop54
  1
strokes_ogs.tif
102
RTVSPost2010PropOp54
 70
     0
102
RTVSPost2010Prop55
280
     0
102
RTVSPost2010PropOp55
 70
     0
102
RTVSPost2010Prop56
140
1.0
102
RTVSPost2010PropOp56
 70
     0
102
RTVSPost2010Prop57
140
1.0
102
RTVSPost2010PropOp57
 70
     0
  0
XRECORD
  5
2B7
102
{ACAD_REACTORS
330
2B6
102
}
330
2B6
100
AcDbXrecord
280
     1
102
RTVSPropertyOp0
 70
     1
102
RTVSPropertyOp1
 70
     1
102
RTVSPropertyOp2
 70
     1
102
RTVSPropertyOp3
 70
     1
102
RTVSPropertyOp4
 70
     1
102
RTVSPropertyOp5
 70
     1
102
RTVSPropertyOp6
 70
     1
102
RTVSPropertyOp7
 70
     1
102
RTVSPropertyOp8
 70
     1
102
RTVSPropertyOp9
 70
     1
102
RTVSPropertyOp10
 70
     1
102
RTVSPropertyOp11
 70
     1
102
RTVSPropertyOp12
 70
     1
102
RTVSPropertyOp13
 70
     1
102
RTVSPropertyOp14
 70
     1
102
RTVSPropertyOp15
 70
     1
102
RTVSPropertyOp16
 70
     1
102
RTVSPropertyOp17
 70
     1
102
RTVSPropertyOp18
 70
     1
102
RTVSPropertyOp19
 70
     1
102
RTVSPropertyOp20
 70
     1
102
RTVSPropertyOp21
 70
     1
102
RTVSPropertyOp22
 70
     1
102
RTVSPropertyOp23
 70
     1
102
RTVSPropertyOp24
 70
     1
102
RTVSPropertyOp25
 70
     1
102
RTVSPropertyOp26
 70
     1
102
RTVSPropertyOp27
 70
     1
102
RTVSPropertyOp28
 70
     1
102
RTVSPropertyOp29
 70
     1
102
RTVSPropertyOp30
 70
     1
102
RTVSPropertyOp31
 70
     1
102
RTVSPropertyOp32
 70
     1
102
RTVSPropertyOp33
 70
     1
102
RTVSPropertyOp34
 70
     1
102
RTVSPropertyOp35
 70
     1
102
RTVSPropertyOp36
 70
     1
102
RTVSPropertyOp37
 70
     1
102
RTVSPropertyOp38
 70
     1
102
RTVSPropertyOp39
 70
     1
102
RTVSPropertyOp40
 70
     1
102
RTVSPropertyOp41
 70
     1
102
RTVSPropertyOp42
 70
     1
102
RTVSPropertyOp43
 70
     1
102
RTVSPropertyOp44
 70
     1
102
RTVSPropertyOp45
 70
     1
102
RTVSPropertyOp46
 70
     1
102
RTVSPropertyOp47
 70
     1
102
RTVSPropertyOp48
 70
     1
102
RTVSPropertyOp49
 70
     1
102
RTVSPropertyOp50
 70
     1
102
RTVSPropertyOp51
 70
     0
102
RTVSPropertyOp52
 70
     0
102
RTVSPropertyOp53
 70
     1
102
RTVSPropertyOp54
 70
     1
102
RTVSPropertyOp55
 70
     1
102
RTVSPropertyOp56
 70
     1
102
RTVSPropertyOp57
 70
     1
102
RTVSPost2010Prop28
280
     0
102
RTVSPost2010PropOp28
 70
     1
102
RTVSPost2010Prop29
280
     1
102
RTVSPost2010PropOp29
 70
     1
102
RTVSPost2010Prop30
280
     1
102
RTVSPost2010PropOp30
 70
     1
102
RTVSPost2010Prop31
280
     0
102
RTVSPost2010PropOp31
 70
     1
102
RTVSPost2010Prop32
280
     0
102
RTVSPost2010PropOp32
 70
     1
102
RTVSPost2010Prop33
280
     0
102
RTVSPost2010PropOp33
 70
     1
102
RTVSPost2010Prop34
280
     0
102
RTVSPost2010PropOp34
 70
     1
102
RTVSPost2010Prop35
280
     0
102
RTVSPost2010PropOp35
 70
     1
102
RTVSPost2010Prop36
280
     0
102
RTVSPost2010PropOp36
 70
     1
102
RTVSPost2010Prop37
 90
       50
102
RTVSPost2010PropOp37
 70
     1
102
RTVSPost2010Prop38
140
0.0
102
RTVSPost2010PropOp38
 70
     1
102
RTVSPost2010Prop39
140
1.0
102
RTVSPost2010PropOp39
 70
     1
102
RTVSPost2010Prop40
 90
        0
102
RTVSPost2010PropOp40
 70
     1
102
RTVSPost2010Prop41ColorIndex
 90
       18
102
RTVSPost2010Prop41ColorRGB
 90
        0
102
RTVSPost2010PropOp41
 70
     1
102
RTVSPost2010Prop42
 90
       50
102
RTVSPost2010PropOp42
 70
     1
102
RTVSPost2010Prop43
 90
        3
102
RTVSPost2010PropOp43
 70
     1
102
RTVSPost2010Prop44ColorIndex
 90
        5
102
RTVSPost2010Prop44ColorRGB
 90
      255
102
RTVSPost2010PropOp44
 70
     1
102
RTVSPost2010Prop45
280
     0
102
RTVSPost2010PropOp45
 70
     1
102
RTVSPost2010Prop46
 90
       50
102
RTVSPost2010PropOp46
 70
     1
102
RTVSPost2010Prop47
 90
       50
102
RTVSPost2010PropOp47
 70
     1
102
RTVSPost2010Prop48
 90
       50
102
RTVSPost2010PropOp48
 70
     1
102
RTVSPost2010Prop49
280
     0
102
RTVSPost2010PropOp49
 70
     1
102
RTVSPost2010Prop50
 90
       50
102
RTVSPost2010PropOp50
 70
     1
102
RTVSPost2010Prop51ColorIndex
 90
      256
102
RTVSPost2010Prop51ColorRGB
 90
-16777216
102
RTVSPost2010PropOp51
 70
     0
102
RTVSPost2010Prop52
140
1.0
102
RTVSPost2010PropOp52
 70
     0
102
RTVSPost2010Prop53
 90
        2
102
RTVSPost2010PropOp53
 70
     1
102
RTVSPost2010Prop54
  1
strokes_ogs.tif
102
RTVSPost2010PropOp54
 70
     1
102
RTVSPost2010Prop55
280
     0
102
RTVSPost2010PropOp55
 70
     1
102
RTVSPost2010Prop56
140
1.0
102
RTVSPost2010PropOp56
 70
     1
102
RTVSPost2010Prop57
140
1.0
102
RTVSPost2010PropOp57
 70
     1
  0
XRECORD
  5
2BF
102
{ACAD_REACTORS
330
2BE
102
}
330
2BE
100
AcDbXrecord
280
     1
102
RTVSPropertyOp0
 70
     0
102
RTVSPropertyOp1
 70
     0
102
RTVSPropertyOp2
 70
     0
102
RTVSPropertyOp3
 70
     0
102
RTVSPropertyOp4
 70
     0
102
RTVSPropertyOp5
 70
     0
102
RTVSPropertyOp6
 70
     0
102
RTVSPropertyOp7
 70
     0
102
RTVSPropertyOp8
 70
     0
102
RTVSPropertyOp9
 70
     0
102
RTVSPropertyOp10
 70
     0
102
RTVSPropertyOp11
 70
     0
102
RTVSPropertyOp12
 70
     0
102
RTVSPropertyOp13
 70
     0
102
RTVSPropertyOp14
 70
     2
102
RTVSPropertyOp15
 70
     0
102
RTVSPropertyOp16
 70
     0
102
RTVSPropertyOp17
 70
     0
102
RTVSPropertyOp18
 70
     0
102
RTVSPropertyOp19
 70
     0
102
RTVSPropertyOp20
 70
     0
102
RTVSPropertyOp21
 70
     0
102
RTVSPropertyOp22
 70
     0
102
RTVSPropertyOp23
 70
     0
102
RTVSPropertyOp24
 70
     0
102
RTVSPropertyOp25
 70
     0
102
RTVSPropertyOp26
 70
     0
102
RTVSPropertyOp27
 70
     0
102
RTVSPropertyOp28
 70
     0
102
RTVSPropertyOp29
 70
     0
102
RTVSPropertyOp30
 70
     0
102
RTVSPropertyOp31
 70
     0
102
RTVSPropertyOp32
 70
     0
102
RTVSPropertyOp33
 70
     0
102
RTVSPropertyOp34
 70
     0
102
RTVSPropertyOp35
 70
     0
102
RTVSPropertyOp36
 70
     0
102
RTVSPropertyOp37
 70
     0
102
RTVSPropertyOp38
 70
     0
102
RTVSPropertyOp39
 70
     0
102
RTVSPropertyOp40
 70
     0
102
RTVSPropertyOp41
 70
     0
102
RTVSPropertyOp42
 70
     0
102
RTVSPropertyOp43
 70
     0
102
RTVSPropertyOp44
 70
     0
102
RTVSPropertyOp45
 70
     0
102
RTVSPropertyOp46
 70
     0
102
RTVSPropertyOp47
 70
     0
102
RTVSPropertyOp48
 70
     0
102
RTVSPropertyOp49
 70
     0
102
RTVSPropertyOp50
 70
     0
102
RTVSPropertyOp51
 70
     0
102
RTVSPropertyOp52
 70
     0
102
RTVSPropertyOp53
 70
     0
102
RTVSPropertyOp54
 70
     0
102
RTVSPropertyOp55
 70
     0
102
RTVSPropertyOp56
 70
     0
102
RTVSPropertyOp57
 70
     0
102
RTVSPost2010Prop28
280
     0
102
RTVSPost2010PropOp28
 70
     0
102
RTVSPost2010Prop29
280
     1
102
RTVSPost2010PropOp29
 70
     0
102
RTVSPost2010Prop30
280
     1
102
RTVSPost2010PropOp30
 70
     0
102
RTVSPost2010Prop31
280
     0
102
RTVSPost2010PropOp31
 70
     0
102
RTVSPost2010Prop32
280
     0
102
RTVSPost2010PropOp32
 70
     0
102
RTVSPost2010Prop33
280
     0
102
RTVSPost2010PropOp33
 70
     0
102
RTVSPost2010Prop34
280
     0
102
RTVSPost2010PropOp34
 70
     0
102
RTVSPost2010Prop35
280
     0
102
RTVSPost2010PropOp35
 70
     0
102
RTVSPost2010Prop36
280
     0
102
RTVSPost2010PropOp36
 70
     0
102
RTVSPost2010Prop37
 90
       50
102
RTVSPost2010PropOp37
 70
     0
102
RTVSPost2010Prop38
140
0.0
102
RTVSPost2010PropOp38
 70
     0
102
RTVSPost2010Prop39
140
1.0
102
RTVSPost2010PropOp39
 70
     0
102
RTVSPost2010Prop40
 90
        0
102
RTVSPost2010PropOp40
 70
     0
102
RTVSPost2010Prop41ColorIndex
 90
       18
102
RTVSPost2010Prop41ColorRGB
 90
        0
102
RTVSPost2010PropOp41
 70
     0
102
RTVSPost2010Prop42
 90
       50
102
RTVSPost2010PropOp42
 70
     0
102
RTVSPost2010Prop43
 90
        3
102
RTVSPost2010PropOp43
 70
     0
102
RTVSPost2010Prop44ColorIndex
 90
        5
102
RTVSPost2010Prop44ColorRGB
 90
      255
102
RTVSPost2010PropOp44
 70
     0
102
RTVSPost2010Prop45
280
     0
102
RTVSPost2010PropOp45
 70
     0
102
RTVSPost2010Prop46
 90
       50
102
RTVSPost2010PropOp46
 70
     0
102
RTVSPost2010Prop47
 90
       50
102
RTVSPost2010PropOp47
 70
     0
102
RTVSPost2010Prop48
 90
       50
102
RTVSPost2010PropOp48
 70
     0
102
RTVSPost2010Prop49
280
     0
102
RTVSPost2010PropOp49
 70
     0
102
RTVSPost2010Prop50
 90
       50
102
RTVSPost2010PropOp50
 70
     0
102
RTVSPost2010Prop51ColorIndex
 90
      256
102
RTVSPost2010Prop51ColorRGB
 90
-16777216
102
RTVSPost2010PropOp51
 70
     0
102
RTVSPost2010Prop52
140
1.0
102
RTVSPost2010PropOp52
 70
     0
102
RTVSPost2010Prop53
 90
        2
102
RTVSPost2010PropOp53
 70
     0
102
RTVSPost2010Prop54
  1
strokes_ogs.tif
102
RTVSPost2010PropOp54
 70
     0
102
RTVSPost2010Prop55
280
     0
102
RTVSPost2010PropOp55
 70
     0
102
RTVSPost2010Prop56
140
1.0
102
RTVSPost2010PropOp56
 70
     0
102
RTVSPost2010Prop57
140
1.0
102
RTVSPost2010PropOp57
 70
     0
  0
XRECORD
  5
2AD
102
{ACAD_REACTORS
330
2AC
102
}
330
2AC
100
AcDbXrecord
280
     1
102
RTVSPropertyOp0
 70
     1
102
RTVSPropertyOp1
 70
     1
102
RTVSPropertyOp2
 70
     1
102
RTVSPropertyOp3
 70
     1
102
RTVSPropertyOp4
 70
     1
102
RTVSPropertyOp5
 70
     1
102
RTVSPropertyOp6
 70
     1
102
RTVSPropertyOp7
 70
     1
102
RTVSPropertyOp8
 70
     1
102
RTVSPropertyOp9
 70
     1
102
RTVSPropertyOp10
 70
     1
102
RTVSPropertyOp11
 70
     1
102
RTVSPropertyOp12
 70
     1
102
RTVSPropertyOp13
 70
     1
102
RTVSPropertyOp14
 70
     1
102
RTVSPropertyOp15
 70
     1
102
RTVSPropertyOp16
 70
     1
102
RTVSPropertyOp17
 70
     1
102
RTVSPropertyOp18
 70
     1
102
RTVSPropertyOp19
 70
     1
102
RTVSPropertyOp20
 70
     1
102
RTVSPropertyOp21
 70
     1
102
RTVSPropertyOp22
 70
     1
102
RTVSPropertyOp23
 70
     1
102
RTVSPropertyOp24
 70
     1
102
RTVSPropertyOp25
 70
     1
102
RTVSPropertyOp26
 70
     1
102
RTVSPropertyOp27
 70
     1
102
RTVSPropertyOp28
 70
     1
102
RTVSPropertyOp29
 70
     1
102
RTVSPropertyOp30
 70
     1
102
RTVSPropertyOp31
 70
     1
102
RTVSPropertyOp32
 70
     1
102
RTVSPropertyOp33
 70
     1
102
RTVSPropertyOp34
 70
     1
102
RTVSPropertyOp35
 70
     1
102
RTVSPropertyOp36
 70
     1
102
RTVSPropertyOp37
 70
     1
102
RTVSPropertyOp38
 70
     1
102
RTVSPropertyOp39
 70
     1
102
RTVSPropertyOp40
 70
     1
102
RTVSPropertyOp41
 70
     1
102
RTVSPropertyOp42
 70
     1
102
RTVSPropertyOp43
 70
     1
102
RTVSPropertyOp44
 70
     1
102
RTVSPropertyOp45
 70
     1
102
RTVSPropertyOp46
 70
     1
102
RTVSPropertyOp47
 70
     1
102
RTVSPropertyOp48
 70
     1
102
RTVSPropertyOp49
 70
     1
102
RTVSPropertyOp50
 70
     1
102
RTVSPropertyOp51
 70
     0
102
RTVSPropertyOp52
 70
     0
102
RTVSPropertyOp53
 70
     1
102
RTVSPropertyOp54
 70
     1
102
RTVSPropertyOp55
 70
     1
102
RTVSPropertyOp56
 70
     1
102
RTVSPropertyOp57
 70
     1
102
RTVSPost2010Prop28
280
     0
102
RTVSPost2010PropOp28
 70
     1
102
RTVSPost2010Prop29
280
     1
102
RTVSPost2010PropOp29
 70
     1
102
RTVSPost2010Prop30
280
     1
102
RTVSPost2010PropOp30
 70
     1
102
RTVSPost2010Prop31
280
     0
102
RTVSPost2010PropOp31
 70
     1
102
RTVSPost2010Prop32
280
     0
102
RTVSPost2010PropOp32
 70
     1
102
RTVSPost2010Prop33
280
     0
102
RTVSPost2010PropOp33
 70
     1
102
RTVSPost2010Prop34
280
     0
102
RTVSPost2010PropOp34
 70
     1
102
RTVSPost2010Prop35
280
     0
102
RTVSPost2010PropOp35
 70
     1
102
RTVSPost2010Prop36
280
     0
102
RTVSPost2010PropOp36
 70
     1
102
RTVSPost2010Prop37
 90
       50
102
RTVSPost2010PropOp37
 70
     1
102
RTVSPost2010Prop38
140
0.0
102
RTVSPost2010PropOp38
 70
     1
102
RTVSPost2010Prop39
140
1.0
102
RTVSPost2010PropOp39
 70
     1
102
RTVSPost2010Prop40
 90
        0
102
RTVSPost2010PropOp40
 70
     1
102
RTVSPost2010Prop41ColorIndex
 90
       18
102
RTVSPost2010Prop41ColorRGB
 90
        0
102
RTVSPost2010PropOp41
 70
     1
102
RTVSPost2010Prop42
 90
       50
102
RTVSPost2010PropOp42
 70
     1
102
RTVSPost2010Prop43
 90
        3
102
RTVSPost2010PropOp43
 70
     1
102
RTVSPost2010Prop44ColorIndex
 90
        5
102
RTVSPost2010Prop44ColorRGB
 90
      255
102
RTVSPost2010PropOp44
 70
     1
102
RTVSPost2010Prop45
280
     0
102
RTVSPost2010PropOp45
 70
     1
102
RTVSPost2010Prop46
 90
       50
102
RTVSPost2010PropOp46
 70
     1
102
RTVSPost2010Prop47
 90
       50
102
RTVSPost2010PropOp47
 70
     1
102
RTVSPost2010Prop48
 90
       50
102
RTVSPost2010PropOp48
 70
     1
102
RTVSPost2010Prop49
280
     0
102
RTVSPost2010PropOp49
 70
     1
102
RTVSPost2010Prop50
 90
       50
102
RTVSPost2010PropOp50
 70
     1
102
RTVSPost2010Prop51ColorIndex
 90
      256
102
RTVSPost2010Prop51ColorRGB
 90
-16777216
102
RTVSPost2010PropOp51
 70
     0
102
RTVSPost2010Prop52
140
1.0
102
RTVSPost2010PropOp52
 70
     0
102
RTVSPost2010Prop53
 90
        2
102
RTVSPost2010PropOp53
 70
     1
102
RTVSPost2010Prop54
  1
strokes_ogs.tif
102
RTVSPost2010PropOp54
 70
     1
102
RTVSPost2010Prop55
280
     0
102
RTVSPost2010PropOp55
 70
     1
102
RTVSPost2010Prop56
140
1.0
102
RTVSPost2010PropOp56
 70
     1
102
RTVSPost2010Prop57
140
1.0
102
RTVSPost2010PropOp57
 70
     1
  0
XRECORD
  5
2CB
102
{ACAD_REACTORS
330
2CA
102
}
330
2CA
100
AcDbXrecord
280
     1
102
RTVSPropertyOp0
 70
     1
102
RTVSPropertyOp1
 70
     1
102
RTVSPropertyOp2
 70
     1
102
RTVSPropertyOp3
 70
     1
102
RTVSPropertyOp4
 70
     1
102
RTVSPropertyOp5
 70
     1
102
RTVSPropertyOp6
 70
     1
102
RTVSPropertyOp7
 70
     1
102
RTVSPropertyOp8
 70
     1
102
RTVSPropertyOp9
 70
     1
102
RTVSPropertyOp10
 70
     1
102
RTVSPropertyOp11
 70
     1
102
RTVSPropertyOp12
 70
     1
102
RTVSPropertyOp13
 70
     1
102
RTVSPropertyOp14
 70
     1
102
RTVSPropertyOp15
 70
     1
102
RTVSPropertyOp16
 70
     1
102
RTVSPropertyOp17
 70
     1
102
RTVSPropertyOp18
 70
     1
102
RTVSPropertyOp19
 70
     1
102
RTVSPropertyOp20
 70
     1
102
RTVSPropertyOp21
 70
     1
102
RTVSPropertyOp22
 70
     1
102
RTVSPropertyOp23
 70
     1
102
RTVSPropertyOp24
 70
     1
102
RTVSPropertyOp25
 70
     1
102
RTVSPropertyOp26
 70
     1
102
RTVSPropertyOp27
 70
     1
102
RTVSPropertyOp28
 70
     1
102
RTVSPropertyOp29
 70
     1
102
RTVSPropertyOp30
 70
     1
102
RTVSPropertyOp31
 70
     1
102
RTVSPropertyOp32
 70
     1
102
RTVSPropertyOp33
 70
     1
102
RTVSPropertyOp34
 70
     1
102
RTVSPropertyOp35
 70
     1
102
RTVSPropertyOp36
 70
     1
102
RTVSPropertyOp37
 70
     1
102
RTVSPropertyOp38
 70
     1
102
RTVSPropertyOp39
 70
     1
102
RTVSPropertyOp40
 70
     1
102
RTVSPropertyOp41
 70
     1
102
RTVSPropertyOp42
 70
     1
102
RTVSPropertyOp43
 70
     1
102
RTVSPropertyOp44
 70
     1
102
RTVSPropertyOp45
 70
     1
102
RTVSPropertyOp46
 70
     1
102
RTVSPropertyOp47
 70
     1
102
RTVSPropertyOp48
 70
     1
102
RTVSPropertyOp49
 70
     1
102
RTVSPropertyOp50
 70
     1
102
RTVSPropertyOp51
 70
     0
102
RTVSPropertyOp52
 70
     0
102
RTVSPropertyOp53
 70
     1
102
RTVSPropertyOp54
 70
     1
102
RTVSPropertyOp55
 70
     1
102
RTVSPropertyOp56
 70
     1
102
RTVSPropertyOp57
 70
     1
102
RTVSPost2010Prop28
280
     0
102
RTVSPost2010PropOp28
 70
     1
102
RTVSPost2010Prop29
280
     1
102
RTVSPost2010PropOp29
 70
     1
102
RTVSPost2010Prop30
280
     1
102
RTVSPost2010PropOp30
 70
     1
102
RTVSPost2010Prop31
280
     0
102
RTVSPost2010PropOp31
 70
     1
102
RTVSPost2010Prop32
280
     0
102
RTVSPost2010PropOp32
 70
     1
102
RTVSPost2010Prop33
280
     0
102
RTVSPost2010PropOp33
 70
     1
102
RTVSPost2010Prop34
280
     0
102
RTVSPost2010PropOp34
 70
     1
102
RTVSPost2010Prop35
280
     0
102
RTVSPost2010PropOp35
 70
     1
102
RTVSPost2010Prop36
280
     0
102
RTVSPost2010PropOp36
 70
     1
102
RTVSPost2010Prop37
 90
       50
102
RTVSPost2010PropOp37
 70
     1
102
RTVSPost2010Prop38
140
0.0
102
RTVSPost2010PropOp38
 70
     1
102
RTVSPost2010Prop39
140
1.0
102
RTVSPost2010PropOp39
 70
     1
102
RTVSPost2010Prop40
 90
        0
102
RTVSPost2010PropOp40
 70
     1
102
RTVSPost2010Prop41ColorIndex
 90
       18
102
RTVSPost2010Prop41ColorRGB
 90
        0
102
RTVSPost2010PropOp41
 70
     1
102
RTVSPost2010Prop42
 90
       50
102
RTVSPost2010PropOp42
 70
     1
102
RTVSPost2010Prop43
 90
        3
102
RTVSPost2010PropOp43
 70
     1
102
RTVSPost2010Prop44ColorIndex
 90
        5
102
RTVSPost2010Prop44ColorRGB
 90
      255
102
RTVSPost2010PropOp44
 70
     1
102
RTVSPost2010Prop45
280
     0
102
RTVSPost2010PropOp45
 70
     1
102
RTVSPost2010Prop46
 90
       50
102
RTVSPost2010PropOp46
 70
     1
102
RTVSPost2010Prop47
 90
       50
102
RTVSPost2010PropOp47
 70
     1
102
RTVSPost2010Prop48
 90
       50
102
RTVSPost2010PropOp48
 70
     1
102
RTVSPost2010Prop49
280
     0
102
RTVSPost2010PropOp49
 70
     1
102
RTVSPost2010Prop50
 90
       50
102
RTVSPost2010PropOp50
 70
     1
102
RTVSPost2010Prop51ColorIndex
 90
      256
102
RTVSPost2010Prop51ColorRGB
 90
-16777216
102
RTVSPost2010PropOp51
 70
     0
102
RTVSPost2010Prop52
140
1.0
102
RTVSPost2010PropOp52
 70
     0
102
RTVSPost2010Prop53
 90
        2
102
RTVSPost2010PropOp53
 70
     1
102
RTVSPost2010Prop54
  1
strokes_ogs.tif
102
RTVSPost2010PropOp54
 70
     1
102
RTVSPost2010Prop55
280
     0
102
RTVSPost2010PropOp55
 70
     1
102
RTVSPost2010Prop56
140
1.0
102
RTVSPost2010PropOp56
 70
     1
102
RTVSPost2010Prop57
140
1.0
102
RTVSPost2010PropOp57
 70
     1
  0
XRECORD
  5
2C9
102
{ACAD_REACTORS
330
2C8
102
}
330
2C8
100
AcDbXrecord
280
     1
102
RTVSPropertyOp0
 70
     1
102
RTVSPropertyOp1
 70
     1
102
RTVSPropertyOp2
 70
     1
102
RTVSPropertyOp3
 70
     1
102
RTVSPropertyOp4
 70
     1
102
RTVSPropertyOp5
 70
     1
102
RTVSPropertyOp6
 70
     1
102
RTVSPropertyOp7
 70
     1
102
RTVSPropertyOp8
 70
     1
102
RTVSPropertyOp9
 70
     1
102
RTVSPropertyOp10
 70
     1
102
RTVSPropertyOp11
 70
     1
102
RTVSPropertyOp12
 70
     1
102
RTVSPropertyOp13
 70
     1
102
RTVSPropertyOp14
 70
     1
102
RTVSPropertyOp15
 70
     1
102
RTVSPropertyOp16
 70
     1
102
RTVSPropertyOp17
 70
     1
102
RTVSPropertyOp18
 70
     1
102
RTVSPropertyOp19
 70
     1
102
RTVSPropertyOp20
 70
     1
102
RTVSPropertyOp21
 70
     1
102
RTVSPropertyOp22
 70
     1
102
RTVSPropertyOp23
 70
     1
102
RTVSPropertyOp24
 70
     1
102
RTVSPropertyOp25
 70
     1
102
RTVSPropertyOp26
 70
     1
102
RTVSPropertyOp27
 70
     1
102
RTVSPropertyOp28
 70
     1
102
RTVSPropertyOp29
 70
     1
102
RTVSPropertyOp30
 70
     1
102
RTVSPropertyOp31
 70
     1
102
RTVSPropertyOp32
 70
     1
102
RTVSPropertyOp33
 70
     1
102
RTVSPropertyOp34
 70
     1
102
RTVSPropertyOp35
 70
     1
102
RTVSPropertyOp36
 70
     1
102
RTVSPropertyOp37
 70
     1
102
RTVSPropertyOp38
 70
     1
102
RTVSPropertyOp39
 70
     1
102
RTVSPropertyOp40
 70
     1
102
RTVSPropertyOp41
 70
     1
102
RTVSPropertyOp42
 70
     1
102
RTVSPropertyOp43
 70
     1
102
RTVSPropertyOp44
 70
     1
102
RTVSPropertyOp45
 70
     1
102
RTVSPropertyOp46
 70
     1
102
RTVSPropertyOp47
 70
     1
102
RTVSPropertyOp48
 70
     1
102
RTVSPropertyOp49
 70
     1
102
RTVSPropertyOp50
 70
     1
102
RTVSPropertyOp51
 70
     0
102
RTVSPropertyOp52
 70
     0
102
RTVSPropertyOp53
 70
     1
102
RTVSPropertyOp54
 70
     1
102
RTVSPropertyOp55
 70
     1
102
RTVSPropertyOp56
 70
     1
102
RTVSPropertyOp57
 70
     1
102
RTVSPost2010Prop28
280
     0
102
RTVSPost2010PropOp28
 70
     1
102
RTVSPost2010Prop29
280
     1
102
RTVSPost2010PropOp29
 70
     1
102
RTVSPost2010Prop30
280
     1
102
RTVSPost2010PropOp30
 70
     1
102
RTVSPost2010Prop31
280
     0
102
RTVSPost2010PropOp31
 70
     1
102
RTVSPost2010Prop32
280
     0
102
RTVSPost2010PropOp32
 70
     1
102
RTVSPost2010Prop33
280
     0
102
RTVSPost2010PropOp33
 70
     1
102
RTVSPost2010Prop34
280
     0
102
RTVSPost2010PropOp34
 70
     1
102
RTVSPost2010Prop35
280
     0
102
RTVSPost2010PropOp35
 70
     1
102
RTVSPost2010Prop36
280
     0
102
RTVSPost2010PropOp36
 70
     1
102
RTVSPost2010Prop37
 90
       50
102
RTVSPost2010PropOp37
 70
     1
102
RTVSPost2010Prop38
140
0.0
102
RTVSPost2010PropOp38
 70
     1
102
RTVSPost2010Prop39
140
1.0
102
RTVSPost2010PropOp39
 70
     1
102
RTVSPost2010Prop40
 90
        0
102
RTVSPost2010PropOp40
 70
     1
102
RTVSPost2010Prop41ColorIndex
 90
       18
102
RTVSPost2010Prop41ColorRGB
 90
        0
102
RTVSPost2010PropOp41
 70
     1
102
RTVSPost2010Prop42
 90
       50
102
RTVSPost2010PropOp42
 70
     1
102
RTVSPost2010Prop43
 90
        3
102
RTVSPost2010PropOp43
 70
     1
102
RTVSPost2010Prop44ColorIndex
 90
        5
102
RTVSPost2010Prop44ColorRGB
 90
      255
102
RTVSPost2010PropOp44
 70
     1
102
RTVSPost2010Prop45
280
     0
102
RTVSPost2010PropOp45
 70
     1
102
RTVSPost2010Prop46
 90
       50
102
RTVSPost2010PropOp46
 70
     1
102
RTVSPost2010Prop47
 90
       50
102
RTVSPost2010PropOp47
 70
     1
102
RTVSPost2010Prop48
 90
       50
102
RTVSPost2010PropOp48
 70
     1
102
RTVSPost2010Prop49
280
     0
102
RTVSPost2010PropOp49
 70
     1
102
RTVSPost2010Prop50
 90
       50
102
RTVSPost2010PropOp50
 70
     1
102
RTVSPost2010Prop51ColorIndex
 90
      256
102
RTVSPost2010Prop51ColorRGB
 90
-16777216
102
RTVSPost2010PropOp51
 70
     0
102
RTVSPost2010Prop52
140
1.0
102
RTVSPost2010PropOp52
 70
     0
102
RTVSPost2010Prop53
 90
        2
102
RTVSPost2010PropOp53
 70
     1
102
RTVSPost2010Prop54
  1
strokes_ogs.tif
102
RTVSPost2010PropOp54
 70
     1
102
RTVSPost2010Prop55
280
     0
102
RTVSPost2010PropOp55
 70
     1
102
RTVSPost2010Prop56
140
1.0
102
RTVSPost2010PropOp56
 70
     1
102
RTVSPost2010Prop57
140
1.0
102
RTVSPost2010PropOp57
 70
     1
  0
XRECORD
  5
2C3
102
{ACAD_REACTORS
330
2C2
102
}
330
2C2
100
AcDbXrecord
280
     1
102
RTVSPropertyOp0
 70
     1
102
RTVSPropertyOp1
 70
     1
102
RTVSPropertyOp2
 70
     1
102
RTVSPropertyOp3
 70
     1
102
RTVSPropertyOp4
 70
     1
102
RTVSPropertyOp5
 70
     1
102
RTVSPropertyOp6
 70
     1
102
RTVSPropertyOp7
 70
     1
102
RTVSPropertyOp8
 70
     1
102
RTVSPropertyOp9
 70
     1
102
RTVSPropertyOp10
 70
     1
102
RTVSPropertyOp11
 70
     1
102
RTVSPropertyOp12
 70
     1
102
RTVSPropertyOp13
 70
     1
102
RTVSPropertyOp14
 70
     1
102
RTVSPropertyOp15
 70
     1
102
RTVSPropertyOp16
 70
     1
102
RTVSPropertyOp17
 70
     1
102
RTVSPropertyOp18
 70
     1
102
RTVSPropertyOp19
 70
     1
102
RTVSPropertyOp20
 70
     1
102
RTVSPropertyOp21
 70
     1
102
RTVSPropertyOp22
 70
     1
102
RTVSPropertyOp23
 70
     1
102
RTVSPropertyOp24
 70
     1
102
RTVSPropertyOp25
 70
     1
102
RTVSPropertyOp26
 70
     1
102
RTVSPropertyOp27
 70
     1
102
RTVSPropertyOp28
 70
     1
102
RTVSPropertyOp29
 70
     1
102
RTVSPropertyOp30
 70
     1
102
RTVSPropertyOp31
 70
     1
102
RTVSPropertyOp32
 70
     1
102
RTVSPropertyOp33
 70
     1
102
RTVSPropertyOp34
 70
     1
102
RTVSPropertyOp35
 70
     1
102
RTVSPropertyOp36
 70
     1
102
RTVSPropertyOp37
 70
     1
102
RTVSPropertyOp38
 70
     1
102
RTVSPropertyOp39
 70
     1
102
RTVSPropertyOp40
 70
     1
102
RTVSPropertyOp41
 70
     1
102
RTVSPropertyOp42
 70
     1
102
RTVSPropertyOp43
 70
     1
102
RTVSPropertyOp44
 70
     1
102
RTVSPropertyOp45
 70
     1
102
RTVSPropertyOp46
 70
     1
102
RTVSPropertyOp47
 70
     1
102
RTVSPropertyOp48
 70
     1
102
RTVSPropertyOp49
 70
     1
102
RTVSPropertyOp50
 70
     1
102
RTVSPropertyOp51
 70
     0
102
RTVSPropertyOp52
 70
     0
102
RTVSPropertyOp53
 70
     1
102
RTVSPropertyOp54
 70
     1
102
RTVSPropertyOp55
 70
     1
102
RTVSPropertyOp56
 70
     1
102
RTVSPropertyOp57
 70
     1
102
RTVSPost2010Prop28
280
     0
102
RTVSPost2010PropOp28
 70
     1
102
RTVSPost2010Prop29
280
     1
102
RTVSPost2010PropOp29
 70
     1
102
RTVSPost2010Prop30
280
     1
102
RTVSPost2010PropOp30
 70
     1
102
RTVSPost2010Prop31
280
     0
102
RTVSPost2010PropOp31
 70
     1
102
RTVSPost2010Prop32
280
     0
102
RTVSPost2010PropOp32
 70
     1
102
RTVSPost2010Prop33
280
     0
102
RTVSPost2010PropOp33
 70
     1
102
RTVSPost2010Prop34
280
     0
102
RTVSPost2010PropOp34
 70
     1
102
RTVSPost2010Prop35
280
     0
102
RTVSPost2010PropOp35
 70
     1
102
RTVSPost2010Prop36
280
     0
102
RTVSPost2010PropOp36
 70
     1
102
RTVSPost2010Prop37
 90
       50
102
RTVSPost2010PropOp37
 70
     1
102
RTVSPost2010Prop38
140
0.0
102
RTVSPost2010PropOp38
 70
     1
102
RTVSPost2010Prop39
140
1.0
102
RTVSPost2010PropOp39
 70
     1
102
RTVSPost2010Prop40
 90
        0
102
RTVSPost2010PropOp40
 70
     1
102
RTVSPost2010Prop41ColorIndex
 90
       18
102
RTVSPost2010Prop41ColorRGB
 90
        0
102
RTVSPost2010PropOp41
 70
     1
102
RTVSPost2010Prop42
 90
       50
102
RTVSPost2010PropOp42
 70
     1
102
RTVSPost2010Prop43
 90
        3
102
RTVSPost2010PropOp43
 70
     1
102
RTVSPost2010Prop44ColorIndex
 90
        5
102
RTVSPost2010Prop44ColorRGB
 90
      255
102
RTVSPost2010PropOp44
 70
     1
102
RTVSPost2010Prop45
280
     0
102
RTVSPost2010PropOp45
 70
     1
102
RTVSPost2010Prop46
 90
       50
102
RTVSPost2010PropOp46
 70
     1
102
RTVSPost2010Prop47
 90
       50
102
RTVSPost2010PropOp47
 70
     1
102
RTVSPost2010Prop48
 90
       50
102
RTVSPost2010PropOp48
 70
     1
102
RTVSPost2010Prop49
280
     0
102
RTVSPost2010PropOp49
 70
     1
102
RTVSPost2010Prop50
 90
       50
102
RTVSPost2010PropOp50
 70
     1
102
RTVSPost2010Prop51ColorIndex
 90
      256
102
RTVSPost2010Prop51ColorRGB
 90
-16777216
102
RTVSPost2010PropOp51
 70
     0
102
RTVSPost2010Prop52
140
1.0
102
RTVSPost2010PropOp52
 70
     0
102
RTVSPost2010Prop53
 90
        2
102
RTVSPost2010PropOp53
 70
     1
102
RTVSPost2010Prop54
  1
strokes_ogs.tif
102
RTVSPost2010PropOp54
 70
     1
102
RTVSPost2010Prop55
280
     0
102
RTVSPost2010PropOp55
 70
     1
102
RTVSPost2010Prop56
140
1.0
102
RTVSPost2010PropOp56
 70
     1
102
RTVSPost2010Prop57
140
1.0
102
RTVSPost2010PropOp57
 70
     1
  0
XRECORD
  5
2C5
102
{ACAD_REACTORS
330
2C4
102
}
330
2C4
100
AcDbXrecord
280
     1
102
RTVSPropertyOp0
 70
     1
102
RTVSPropertyOp1
 70
     1
102
RTVSPropertyOp2
 70
     1
102
RTVSPropertyOp3
 70
     1
102
RTVSPropertyOp4
 70
     1
102
RTVSPropertyOp5
 70
     1
102
RTVSPropertyOp6
 70
     1
102
RTVSPropertyOp7
 70
     1
102
RTVSPropertyOp8
 70
     1
102
RTVSPropertyOp9
 70
     1
102
RTVSPropertyOp10
 70
     1
102
RTVSPropertyOp11
 70
     1
102
RTVSPropertyOp12
 70
     1
102
RTVSPropertyOp13
 70
     1
102
RTVSPropertyOp14
 70
     1
102
RTVSPropertyOp15
 70
     1
102
RTVSPropertyOp16
 70
     1
102
RTVSPropertyOp17
 70
     1
102
RTVSPropertyOp18
 70
     1
102
RTVSPropertyOp19
 70
     1
102
RTVSPropertyOp20
 70
     1
102
RTVSPropertyOp21
 70
     1
102
RTVSPropertyOp22
 70
     1
102
RTVSPropertyOp23
 70
     1
102
RTVSPropertyOp24
 70
     1
102
RTVSPropertyOp25
 70
     1
102
RTVSPropertyOp26
 70
     1
102
RTVSPropertyOp27
 70
     1
102
RTVSPropertyOp28
 70
     1
102
RTVSPropertyOp29
 70
     1
102
RTVSPropertyOp30
 70
     1
102
RTVSPropertyOp31
 70
     1
102
RTVSPropertyOp32
 70
     1
102
RTVSPropertyOp33
 70
     1
102
RTVSPropertyOp34
 70
     1
102
RTVSPropertyOp35
 70
     1
102
RTVSPropertyOp36
 70
     1
102
RTVSPropertyOp37
 70
     1
102
RTVSPropertyOp38
 70
     1
102
RTVSPropertyOp39
 70
     1
102
RTVSPropertyOp40
 70
     1
102
RTVSPropertyOp41
 70
     1
102
RTVSPropertyOp42
 70
     1
102
RTVSPropertyOp43
 70
     1
102
RTVSPropertyOp44
 70
     1
102
RTVSPropertyOp45
 70
     1
102
RTVSPropertyOp46
 70
     1
102
RTVSPropertyOp47
 70
     1
102
RTVSPropertyOp48
 70
     1
102
RTVSPropertyOp49
 70
     1
102
RTVSPropertyOp50
 70
     1
102
RTVSPropertyOp51
 70
     0
102
RTVSPropertyOp52
 70
     0
102
RTVSPropertyOp53
 70
     1
102
RTVSPropertyOp54
 70
     1
102
RTVSPropertyOp55
 70
     1
102
RTVSPropertyOp56
 70
     1
102
RTVSPropertyOp57
 70
     1
102
RTVSPost2010Prop28
280
     0
102
RTVSPost2010PropOp28
 70
     1
102
RTVSPost2010Prop29
280
     1
102
RTVSPost2010PropOp29
 70
     1
102
RTVSPost2010Prop30
280
     1
102
RTVSPost2010PropOp30
 70
     1
102
RTVSPost2010Prop31
280
     0
102
RTVSPost2010PropOp31
 70
     1
102
RTVSPost2010Prop32
280
     0
102
RTVSPost2010PropOp32
 70
     1
102
RTVSPost2010Prop33
280
     0
102
RTVSPost2010PropOp33
 70
     1
102
RTVSPost2010Prop34
280
     0
102
RTVSPost2010PropOp34
 70
     1
102
RTVSPost2010Prop35
280
     0
102
RTVSPost2010PropOp35
 70
     1
102
RTVSPost2010Prop36
280
     0
102
RTVSPost2010PropOp36
 70
     1
102
RTVSPost2010Prop37
 90
       50
102
RTVSPost2010PropOp37
 70
     1
102
RTVSPost2010Prop38
140
0.0
102
RTVSPost2010PropOp38
 70
     1
102
RTVSPost2010Prop39
140
1.0
102
RTVSPost2010PropOp39
 70
     1
102
RTVSPost2010Prop40
 90
        0
102
RTVSPost2010PropOp40
 70
     1
102
RTVSPost2010Prop41ColorIndex
 90
       18
102
RTVSPost2010Prop41ColorRGB
 90
        0
102
RTVSPost2010PropOp41
 70
     1
102
RTVSPost2010Prop42
 90
       50
102
RTVSPost2010PropOp42
 70
     1
102
RTVSPost2010Prop43
 90
        3
102
RTVSPost2010PropOp43
 70
     1
102
RTVSPost2010Prop44ColorIndex
 90
        5
102
RTVSPost2010Prop44ColorRGB
 90
      255
102
RTVSPost2010PropOp44
 70
     1
102
RTVSPost2010Prop45
280
     0
102
RTVSPost2010PropOp45
 70
     1
102
RTVSPost2010Prop46
 90
       50
102
RTVSPost2010PropOp46
 70
     1
102
RTVSPost2010Prop47
 90
       50
102
RTVSPost2010PropOp47
 70
     1
102
RTVSPost2010Prop48
 90
       50
102
RTVSPost2010PropOp48
 70
     1
102
RTVSPost2010Prop49
280
     0
102
RTVSPost2010PropOp49
 70
     1
102
RTVSPost2010Prop50
 90
       50
102
RTVSPost2010PropOp50
 70
     1
102
RTVSPost2010Prop51ColorIndex
 90
      256
102
RTVSPost2010Prop51ColorRGB
 90
-16777216
102
RTVSPost2010PropOp51
 70
     0
102
RTVSPost2010Prop52
140
1.0
102
RTVSPost2010PropOp52
 70
     0
102
RTVSPost2010Prop53
 90
        2
102
RTVSPost2010PropOp53
 70
     1
102
RTVSPost2010Prop54
  1
strokes_ogs.tif
102
RTVSPost2010PropOp54
 70
     1
102
RTVSPost2010Prop55
280
     0
102
RTVSPost2010PropOp55
 70
     1
102
RTVSPost2010Prop56
140
1.0
102
RTVSPost2010PropOp56
 70
     1
102
RTVSPost2010Prop57
140
1.0
102
RTVSPost2010PropOp57
 70
     1
  0
XRECORD
  5
2B5
102
{ACAD_REACTORS
330
2B4
102
}
330
2B4
100
AcDbXrecord
280
     1
102
RTVSPropertyOp0
 70
     1
102
RTVSPropertyOp1
 70
     1
102
RTVSPropertyOp2
 70
     1
102
RTVSPropertyOp3
 70
     1
102
RTVSPropertyOp4
 70
     1
102
RTVSPropertyOp5
 70
     1
102
RTVSPropertyOp6
 70
     1
102
RTVSPropertyOp7
 70
     1
102
RTVSPropertyOp8
 70
     1
102
RTVSPropertyOp9
 70
     1
102
RTVSPropertyOp10
 70
     1
102
RTVSPropertyOp11
 70
     1
102
RTVSPropertyOp12
 70
     1
102
RTVSPropertyOp13
 70
     1
102
RTVSPropertyOp14
 70
     1
102
RTVSPropertyOp15
 70
     1
102
RTVSPropertyOp16
 70
     1
102
RTVSPropertyOp17
 70
     1
102
RTVSPropertyOp18
 70
     1
102
RTVSPropertyOp19
 70
     1
102
RTVSPropertyOp20
 70
     1
102
RTVSPropertyOp21
 70
     1
102
RTVSPropertyOp22
 70
     1
102
RTVSPropertyOp23
 70
     1
102
RTVSPropertyOp24
 70
     1
102
RTVSPropertyOp25
 70
     1
102
RTVSPropertyOp26
 70
     1
102
RTVSPropertyOp27
 70
     1
102
RTVSPropertyOp28
 70
     1
102
RTVSPropertyOp29
 70
     1
102
RTVSPropertyOp30
 70
     1
102
RTVSPropertyOp31
 70
     1
102
RTVSPropertyOp32
 70
     1
102
RTVSPropertyOp33
 70
     1
102
RTVSPropertyOp34
 70
     1
102
RTVSPropertyOp35
 70
     1
102
RTVSPropertyOp36
 70
     1
102
RTVSPropertyOp37
 70
     1
102
RTVSPropertyOp38
 70
     1
102
RTVSPropertyOp39
 70
     1
102
RTVSPropertyOp40
 70
     1
102
RTVSPropertyOp41
 70
     1
102
RTVSPropertyOp42
 70
     1
102
RTVSPropertyOp43
 70
     1
102
RTVSPropertyOp44
 70
     1
102
RTVSPropertyOp45
 70
     1
102
RTVSPropertyOp46
 70
     1
102
RTVSPropertyOp47
 70
     1
102
RTVSPropertyOp48
 70
     1
102
RTVSPropertyOp49
 70
     1
102
RTVSPropertyOp50
 70
     1
102
RTVSPropertyOp51
 70
     0
102
RTVSPropertyOp52
 70
     0
102
RTVSPropertyOp53
 70
     1
102
RTVSPropertyOp54
 70
     1
102
RTVSPropertyOp55
 70
     1
102
RTVSPropertyOp56
 70
     1
102
RTVSPropertyOp57
 70
     1
102
RTVSPost2010Prop28
280
     0
102
RTVSPost2010PropOp28
 70
     1
102
RTVSPost2010Prop29
280
     1
102
RTVSPost2010PropOp29
 70
     1
102
RTVSPost2010Prop30
280
     1
102
RTVSPost2010PropOp30
 70
     1
102
RTVSPost2010Prop31
280
     0
102
RTVSPost2010PropOp31
 70
     1
102
RTVSPost2010Prop32
280
     0
102
RTVSPost2010PropOp32
 70
     1
102
RTVSPost2010Prop33
280
     0
102
RTVSPost2010PropOp33
 70
     1
102
RTVSPost2010Prop34
280
     0
102
RTVSPost2010PropOp34
 70
     1
102
RTVSPost2010Prop35
280
     0
102
RTVSPost2010PropOp35
 70
     1
102
RTVSPost2010Prop36
280
     0
102
RTVSPost2010PropOp36
 70
     1
102
RTVSPost2010Prop37
 90
       50
102
RTVSPost2010PropOp37
 70
     1
102
RTVSPost2010Prop38
140
0.0
102
RTVSPost2010PropOp38
 70
     1
102
RTVSPost2010Prop39
140
1.0
102
RTVSPost2010PropOp39
 70
     1
102
RTVSPost2010Prop40
 90
        0
102
RTVSPost2010PropOp40
 70
     1
102
RTVSPost2010Prop41ColorIndex
 90
       18
102
RTVSPost2010Prop41ColorRGB
 90
        0
102
RTVSPost2010PropOp41
 70
     1
102
RTVSPost2010Prop42
 90
       50
102
RTVSPost2010PropOp42
 70
     1
102
RTVSPost2010Prop43
 90
        3
102
RTVSPost2010PropOp43
 70
     1
102
RTVSPost2010Prop44ColorIndex
 90
        5
102
RTVSPost2010Prop44ColorRGB
 90
      255
102
RTVSPost2010PropOp44
 70
     1
102
RTVSPost2010Prop45
280
     0
102
RTVSPost2010PropOp45
 70
     1
102
RTVSPost2010Prop46
 90
       50
102
RTVSPost2010PropOp46
 70
     1
102
RTVSPost2010Prop47
 90
       50
102
RTVSPost2010PropOp47
 70
     1
102
RTVSPost2010Prop48
 90
       50
102
RTVSPost2010PropOp48
 70
     1
102
RTVSPost2010Prop49
280
     0
102
RTVSPost2010PropOp49
 70
     1
102
RTVSPost2010Prop50
 90
       50
102
RTVSPost2010PropOp50
 70
     1
102
RTVSPost2010Prop51ColorIndex
 90
      256
102
RTVSPost2010Prop51ColorRGB
 90
-16777216
102
RTVSPost2010PropOp51
 70
     0
102
RTVSPost2010Prop52
140
1.0
102
RTVSPost2010PropOp52
 70
     0
102
RTVSPost2010Prop53
 90
        2
102
RTVSPost2010PropOp53
 70
     1
102
RTVSPost2010Prop54
  1
strokes_ogs.tif
102
RTVSPost2010PropOp54
 70
     1
102
RTVSPost2010Prop55
280
     0
102
RTVSPost2010PropOp55
 70
     1
102
RTVSPost2010Prop56
140
1.0
102
RTVSPost2010PropOp56
 70
     1
102
RTVSPost2010Prop57
140
1.0
102
RTVSPost2010PropOp57
 70
     1
  0
XRECORD
  5
2A7
102
{ACAD_REACTORS
330
2A6
102
}
330
2A6
100
AcDbXrecord
280
     1
102
RTVSPropertyOp0
 70
     1
102
RTVSPropertyOp1
 70
     1
102
RTVSPropertyOp2
 70
     1
102
RTVSPropertyOp3
 70
     1
102
RTVSPropertyOp4
 70
     1
102
RTVSPropertyOp5
 70
     1
102
RTVSPropertyOp6
 70
     1
102
RTVSPropertyOp7
 70
     1
102
RTVSPropertyOp8
 70
     1
102
RTVSPropertyOp9
 70
     1
102
RTVSPropertyOp10
 70
     1
102
RTVSPropertyOp11
 70
     1
102
RTVSPropertyOp12
 70
     1
102
RTVSPropertyOp13
 70
     1
102
RTVSPropertyOp14
 70
     1
102
RTVSPropertyOp15
 70
     1
102
RTVSPropertyOp16
 70
     1
102
RTVSPropertyOp17
 70
     1
102
RTVSPropertyOp18
 70
     1
102
RTVSPropertyOp19
 70
     1
102
RTVSPropertyOp20
 70
     1
102
RTVSPropertyOp21
 70
     1
102
RTVSPropertyOp22
 70
     1
102
RTVSPropertyOp23
 70
     1
102
RTVSPropertyOp24
 70
     1
102
RTVSPropertyOp25
 70
     1
102
RTVSPropertyOp26
 70
     1
102
RTVSPropertyOp27
 70
     1
102
RTVSPropertyOp28
 70
     1
102
RTVSPropertyOp29
 70
     1
102
RTVSPropertyOp30
 70
     1
102
RTVSPropertyOp31
 70
     1
102
RTVSPropertyOp32
 70
     1
102
RTVSPropertyOp33
 70
     1
102
RTVSPropertyOp34
 70
     1
102
RTVSPropertyOp35
 70
     1
102
RTVSPropertyOp36
 70
     1
102
RTVSPropertyOp37
 70
     1
102
RTVSPropertyOp38
 70
     1
102
RTVSPropertyOp39
 70
     1
102
RTVSPropertyOp40
 70
     1
102
RTVSPropertyOp41
 70
     1
102
RTVSPropertyOp42
 70
     1
102
RTVSPropertyOp43
 70
     1
102
RTVSPropertyOp44
 70
     1
102
RTVSPropertyOp45
 70
     1
102
RTVSPropertyOp46
 70
     1
102
RTVSPropertyOp47
 70
     1
102
RTVSPropertyOp48
 70
     1
102
RTVSPropertyOp49
 70
     1
102
RTVSPropertyOp50
 70
     1
102
RTVSPropertyOp51
 70
     0
102
RTVSPropertyOp52
 70
     0
102
RTVSPropertyOp53
 70
     1
102
RTVSPropertyOp54
 70
     1
102
RTVSPropertyOp55
 70
     1
102
RTVSPropertyOp56
 70
     1
102
RTVSPropertyOp57
 70
     1
102
RTVSPost2010Prop28
280
     0
102
RTVSPost2010PropOp28
 70
     1
102
RTVSPost2010Prop29
280
     1
102
RTVSPost2010PropOp29
 70
     1
102
RTVSPost2010Prop30
280
     1
102
RTVSPost2010PropOp30
 70
     1
102
RTVSPost2010Prop31
280
     0
102
RTVSPost2010PropOp31
 70
     1
102
RTVSPost2010Prop32
280
     0
102
RTVSPost2010PropOp32
 70
     1
102
RTVSPost2010Prop33
280
     0
102
RTVSPost2010PropOp33
 70
     1
102
RTVSPost2010Prop34
280
     0
102
RTVSPost2010PropOp34
 70
     1
102
RTVSPost2010Prop35
280
     0
102
RTVSPost2010PropOp35
 70
     1
102
RTVSPost2010Prop36
280
     0
102
RTVSPost2010PropOp36
 70
     1
102
RTVSPost2010Prop37
 90
       50
102
RTVSPost2010PropOp37
 70
     1
102
RTVSPost2010Prop38
140
0.0
102
RTVSPost2010PropOp38
 70
     1
102
RTVSPost2010Prop39
140
1.0
102
RTVSPost2010PropOp39
 70
     1
102
RTVSPost2010Prop40
 90
        0
102
RTVSPost2010PropOp40
 70
     1
102
RTVSPost2010Prop41ColorIndex
 90
       18
102
RTVSPost2010Prop41ColorRGB
 90
        0
102
RTVSPost2010PropOp41
 70
     1
102
RTVSPost2010Prop42
 90
       50
102
RTVSPost2010PropOp42
 70
     1
102
RTVSPost2010Prop43
 90
        3
102
RTVSPost2010PropOp43
 70
     1
102
RTVSPost2010Prop44ColorIndex
 90
        5
102
RTVSPost2010Prop44ColorRGB
 90
      255
102
RTVSPost2010PropOp44
 70
     1
102
RTVSPost2010Prop45
280
     0
102
RTVSPost2010PropOp45
 70
     1
102
RTVSPost2010Prop46
 90
       50
102
RTVSPost2010PropOp46
 70
     1
102
RTVSPost2010Prop47
 90
       50
102
RTVSPost2010PropOp47
 70
     1
102
RTVSPost2010Prop48
 90
       50
102
RTVSPost2010PropOp48
 70
     1
102
RTVSPost2010Prop49
280
     0
102
RTVSPost2010PropOp49
 70
     1
102
RTVSPost2010Prop50
 90
       50
102
RTVSPost2010PropOp50
 70
     1
102
RTVSPost2010Prop51ColorIndex
 90
      256
102
RTVSPost2010Prop51ColorRGB
 90
-16777216
102
RTVSPost2010PropOp51
 70
     0
102
RTVSPost2010Prop52
140
1.0
102
RTVSPost2010PropOp52
 70
     0
102
RTVSPost2010Prop53
 90
        2
102
RTVSPost2010PropOp53
 70
     1
102
RTVSPost2010Prop54
  1
strokes_ogs.tif
102
RTVSPost2010PropOp54
 70
     1
102
RTVSPost2010Prop55
280
     0
102
RTVSPost2010PropOp55
 70
     1
102
RTVSPost2010Prop56
140
1.0
102
RTVSPost2010PropOp56
 70
     1
102
RTVSPost2010Prop57
140
1.0
102
RTVSPost2010PropOp57
 70
     1
  0
XRECORD
  5
2C7
102
{ACAD_REACTORS
330
2C6
102
}
330
2C6
100
AcDbXrecord
280
     1
102
RTVSPropertyOp0
 70
     1
102
RTVSPropertyOp1
 70
     1
102
RTVSPropertyOp2
 70
     1
102
RTVSPropertyOp3
 70
     1
102
RTVSPropertyOp4
 70
     1
102
RTVSPropertyOp5
 70
     1
102
RTVSPropertyOp6
 70
     1
102
RTVSPropertyOp7
 70
     1
102
RTVSPropertyOp8
 70
     1
102
RTVSPropertyOp9
 70
     1
102
RTVSPropertyOp10
 70
     1
102
RTVSPropertyOp11
 70
     1
102
RTVSPropertyOp12
 70
     1
102
RTVSPropertyOp13
 70
     1
102
RTVSPropertyOp14
 70
     1
102
RTVSPropertyOp15
 70
     1
102
RTVSPropertyOp16
 70
     1
102
RTVSPropertyOp17
 70
     1
102
RTVSPropertyOp18
 70
     1
102
RTVSPropertyOp19
 70
     1
102
RTVSPropertyOp20
 70
     1
102
RTVSPropertyOp21
 70
     1
102
RTVSPropertyOp22
 70
     1
102
RTVSPropertyOp23
 70
     1
102
RTVSPropertyOp24
 70
     1
102
RTVSPropertyOp25
 70
     1
102
RTVSPropertyOp26
 70
     1
102
RTVSPropertyOp27
 70
     1
102
RTVSPropertyOp28
 70
     1
102
RTVSPropertyOp29
 70
     1
102
RTVSPropertyOp30
 70
     1
102
RTVSPropertyOp31
 70
     1
102
RTVSPropertyOp32
 70
     1
102
RTVSPropertyOp33
 70
     1
102
RTVSPropertyOp34
 70
     1
102
RTVSPropertyOp35
 70
     1
102
RTVSPropertyOp36
 70
     1
102
RTVSPropertyOp37
 70
     1
102
RTVSPropertyOp38
 70
     1
102
RTVSPropertyOp39
 70
     1
102
RTVSPropertyOp40
 70
     1
102
RTVSPropertyOp41
 70
     1
102
RTVSPropertyOp42
 70
     1
102
RTVSPropertyOp43
 70
     1
102
RTVSPropertyOp44
 70
     1
102
RTVSPropertyOp45
 70
     1
102
RTVSPropertyOp46
 70
     1
102
RTVSPropertyOp47
 70
     1
102
RTVSPropertyOp48
 70
     1
102
RTVSPropertyOp49
 70
     1
102
RTVSPropertyOp50
 70
     1
102
RTVSPropertyOp51
 70
     0
102
RTVSPropertyOp52
 70
     0
102
RTVSPropertyOp53
 70
     1
102
RTVSPropertyOp54
 70
     1
102
RTVSPropertyOp55
 70
     1
102
RTVSPropertyOp56
 70
     1
102
RTVSPropertyOp57
 70
     1
102
RTVSPost2010Prop28
280
     0
102
RTVSPost2010PropOp28
 70
     1
102
RTVSPost2010Prop29
280
     1
102
RTVSPost2010PropOp29
 70
     1
102
RTVSPost2010Prop30
280
     1
102
RTVSPost2010PropOp30
 70
     1
102
RTVSPost2010Prop31
280
     0
102
RTVSPost2010PropOp31
 70
     1
102
RTVSPost2010Prop32
280
     0
102
RTVSPost2010PropOp32
 70
     1
102
RTVSPost2010Prop33
280
     0
102
RTVSPost2010PropOp33
 70
     1
102
RTVSPost2010Prop34
280
     0
102
RTVSPost2010PropOp34
 70
     1
102
RTVSPost2010Prop35
280
     0
102
RTVSPost2010PropOp35
 70
     1
102
RTVSPost2010Prop36
280
     0
102
RTVSPost2010PropOp36
 70
     1
102
RTVSPost2010Prop37
 90
       50
102
RTVSPost2010PropOp37
 70
     1
102
RTVSPost2010Prop38
140
0.0
102
RTVSPost2010PropOp38
 70
     1
102
RTVSPost2010Prop39
140
1.0
102
RTVSPost2010PropOp39
 70
     1
102
RTVSPost2010Prop40
 90
        0
102
RTVSPost2010PropOp40
 70
     1
102
RTVSPost2010Prop41ColorIndex
 90
       18
102
RTVSPost2010Prop41ColorRGB
 90
        0
102
RTVSPost2010PropOp41
 70
     1
102
RTVSPost2010Prop42
 90
       50
102
RTVSPost2010PropOp42
 70
     1
102
RTVSPost2010Prop43
 90
        3
102
RTVSPost2010PropOp43
 70
     1
102
RTVSPost2010Prop44ColorIndex
 90
        5
102
RTVSPost2010Prop44ColorRGB
 90
      255
102
RTVSPost2010PropOp44
 70
     1
102
RTVSPost2010Prop45
280
     0
102
RTVSPost2010PropOp45
 70
     1
102
RTVSPost2010Prop46
 90
       50
102
RTVSPost2010PropOp46
 70
     1
102
RTVSPost2010Prop47
 90
       50
102
RTVSPost2010PropOp47
 70
     1
102
RTVSPost2010Prop48
 90
       50
102
RTVSPost2010PropOp48
 70
     1
102
RTVSPost2010Prop49
280
     0
102
RTVSPost2010PropOp49
 70
     1
102
RTVSPost2010Prop50
 90
       50
102
RTVSPost2010PropOp50
 70
     1
102
RTVSPost2010Prop51ColorIndex
 90
      256
102
RTVSPost2010Prop51ColorRGB
 90
-16777216
102
RTVSPost2010PropOp51
 70
     0
102
RTVSPost2010Prop52
140
1.0
102
RTVSPost2010PropOp52
 70
     0
102
RTVSPost2010Prop53
 90
        2
102
RTVSPost2010PropOp53
 70
     1
102
RTVSPost2010Prop54
  1
strokes_ogs.tif
102
RTVSPost2010PropOp54
 70
     1
102
RTVSPost2010Prop55
280
     0
102
RTVSPost2010PropOp55
 70
     1
102
RTVSPost2010Prop56
140
1.0
102
RTVSPost2010PropOp56
 70
     1
102
RTVSPost2010Prop57
140
1.0
102
RTVSPost2010PropOp57
 70
     1
  0
ENDSEC
  0
EOF
